A Quien, Nicho Hinojosa (tablatura)

Autor: Anónimo | 33697 visualizaciones

   Esta es la versión del disco, ni le faltan, ni le sobran tonos y/o arreglos,
y va asi:

INTRO:

E--------4---------2---------0----------------------------0-------------------
A--0--------------------------------------------------------------------------
D---------2---2-----2---2-----2-----0-----------------------------------------
G--2-------2-2-------2-2-------1-----2-------------2---2-----0-2--------------
B--2--------2---------2--------0------3-----3-----3-3-3----------2------------
e---------------------------------------2-2---2_0----0-----------0------------


   ¿A quien tratas de engañas amor?, por favor... 
E-------------------4-----------2---------0-----------------------------------
A------0------------------------------------2---------------------------------
D--------2------------2-----------2-------------------------------------------
G---------2---2---------2---2-------2---2--------1----------------------------
B-----------2-------------2-----------2--------0------------------------------
e-----------------------------------------------------------------------------

  ya sé que este es el final... muy bien,
E-----------------------------------0------------------------------------------
A----------------------2-------------------------------------------------------
D----0-------4-----------------------------------------------------------------
G------2--------2---------2-----------1----------------------------------------
B---------3----------3---------3--------0--------------------------------------
e-------2---------2----------2----------0--------------------------------------

  A quien le importa donde ir esta vez... 
E---------------4----------2--------0------------------------------------------
A----0---------------------------------2---------------------------------------
D-------2----------2----------2------------------------------------------------
G----------2-----------2---------2---------1-----------------------------------
B----------2-----------2---------2-------0-------------------------------------
e------------------------------------------------------------------------------

  total aqui o allá será igual el adiós, el adiós...
E------------------------------------0-----------------------------------------
A------------------------------------------------------------------------------
D--0-----4-----------------2-------------------0-------------------------------
G----2------2----------------2---------1-------2--------2----------------------
B------3-------3----------------3--------0-----3-----3--3----------------------
e------2-------2----------------2--------0-----2--2-----0----------------------


           A             F#m         Bm7       D          E   Esus4
   Perdóname si al escucharte dirigiré a otra parte la mirada,
 E7   A     A/F#     F#m         Bm7              D             E    Esus4  E7
Háblame sin tantas vueltas, no utilices nuestras fallas como excusas...


         A                    F#m          F#m-E
   ¿A quien crees tú que dolerá, este fin?, 
    D               D/C#          Bm7              E
¿a ti? que alguien más te espera ya... después de mi...
      A                   F#m     F#m-E      D     
¿a quien le contaras que yo llore...... por ti?,
           D/C#         Bm7       E   Esus4  E7
que ahora solo quieres mi... amistad...


           A                F#m F#m/E       Bm7            D               E  Esus4 
   Perdóname me es tan difícil,      no me pidas que te entienda, no, no puedo,
 E7      A                 F#m             Bm7            D           E     Esus4 E7
discúlpame... pero es tan fácil, perderlo todo cuando la vida apenas empieza...


         A                    F#m          F#m-E
   ¿A quien crees tú que dolerá, este fin?, 
    D               D/C#          Bm7              E
¿a ti? que alguien más te espera ya... después de mi...
      A                   F#m     F#m-E      D     
¿a quien le contaras que yo llore...... por ti?,
           D/C#         Bm7       F#m  F#m-E-D  E
que ahora solo quieres mi... amistad...


         A                    F#m          F#m-E
   ¿A quien crees tú que dolerá, este fin?, 
    D               D/C#          Bm7              E
¿a ti? que alguien más te espera ya... después de mi...
      A                   F#m     F#m-E      D     
¿a quien le contaras que yo llore...... por ti?,
           D/C#         Bm7       E   Esus4  E7       A
que ahora solo quieres mi... amistad...          ¿A quien?.



   Esta canción va dedicada a Roxana (R.G.H.C.)... que tengas mucha suerte y que
encuentres lo que tanto has buscado...

   Dudas, sugerencias, aclaraciones, correciones (te lo agradeceré), a mi correo.


Tonos raros:

      E A D G B E
D/C#  x 4 0 2 3 2
Esus4 0 2 2 2 0 0
A/F#  2 X 2 2 2 0
Calificar esta versión:
Aviso: Este fichero es trabajo propio de su transcriptor y representa su interpretación personal de la canción. El material contenido en esta página es para exclusivo uso privado, por lo que se prohibe su reproducción o retransmisión, así como su uso para fines comerciales.
Más versiones de A Quien, Nicho Hinojosa
A Quien
acordes
A Quien (ver 2)
acordes
A Quien
tablatura
Descubre más canciones de Nicho Hinojosa