Una Calle Me Separa, Nestor En Bloke (tablatura)

Autor: Anónimo | 15274 visualizaciones



E--------------------------------------------------------------/
B---1--1--1---3-3-3-5-3-5-3-1-0----0--0---0--1-1-1-3-1-3-1-0---/
G-2---2--2--2    ---   ------  --2---1--1---1----------------2-/
D--------------------------------------------------------------/
A--------------------------------------------------------------/
E--------------------------------------------------------------/



E----------------------------------/
B-1-1---1--1--3-3-3-5-3-5-3-1-0--0-/
G-----2---2--2---------------------/
D----------------------------------/
A----------------------------------/
E----------------------------------/

E-------0-0----------------0-0------------------0-0-/
B-----0-------1-1--------0-------1-1---1------0-----/
G----1------2----------1-------2-------------1------/
D---0----------------0---------------------0--------/
A-2----------------2----------------------2---------/
E---------------------------------------------------/

E---------------------------------------/
B--1-1---0-0---1-1---0-0---1-1---0-0--1-/
G2-----1-----2-----1-----2-----1--------/
D---------------------------------------/
A---------------------------------------/
E---------------------------------------/





Calificar esta versión:
Aviso: Este fichero es trabajo propio de su transcriptor y representa su interpretación personal de la canción. El material contenido en esta página es para exclusivo uso privado, por lo que se prohibe su reproducción o retransmisión, así como su uso para fines comerciales.
Más versiones de Una Calle Me Separa, Nestor En Bloke
Una Calle Me Separa
acordes
Una Calle Me Separa
tablatura
Una Calle Me Separa
teclado
Descubre más canciones de Nestor En Bloke