Adios Amor Adios, Nestor En Bloke (tablatura)

Autor: Anónimo | 34133 visualizaciones



E---1-1-1-p-1---0-0-0-0-0-5------------------------------------/
B-1-----------------------3-1-3-5-6-7-8-8-8-p-8-6-6-6-6-6-6-6-6-/
G------------------------------------------------------------/
D-------------------------------------------------------------/
A--------------------------------------------------------------/
E----------------------------------------------------------------/



E--------1-1-1-p-1---0-0-0-0-0-5-----------5-5-5-P-5-6-3-5-/
B--5-3-1-----------------------3-3-1-1-p-1-----------------/
G----------------------------------------------------------/
D----------------------------------------------------------/
A----------------------------------------------------------/
E----------------------------------------------------------/

Hoy se ceca nuestra amor y nadie lo podrá regar. . .

P = PAUSA

ESTO SE LO DEDICO A TODOS LOS PIBES DE LA BELTRAN Y EN ESPECIAL A
MI PRIMO JAVIER(Ta-K) y Willy...Podemos intercabiar tablaturas y
punteos del Teclado
ME ENCUENTRAN EN EL MSN [email protected]...





Calificar esta versión:
Aviso: Este fichero es trabajo propio de su transcriptor y representa su interpretación personal de la canción. El material contenido en esta página es para exclusivo uso privado, por lo que se prohibe su reproducción o retransmisión, así como su uso para fines comerciales.
Más versiones de Adios Amor Adios, Nestor En Bloke
Adios Amor Adios
acordes
Adios Amor Adios
tablatura
Descubre más canciones de Nestor En Bloke