Si Las Flores, Nelson Ned (tablatura)

Autor: Anónimo | 44741 visualizaciones



Hola me Augusto pero todos me dicen “tito” ahí mando esta
canción espero q les guste y se lo dedico a una chica muy
es especial bueno a varias chicas jajajajaja bueno va
para (Carla M., Cinthia M., Melissa, y a kiara) cualquier
cosa o para sacar una música me lo dicen este es mi correo
tito_acuario_14@hotmai.com


Intro

Guitarra 1
e|-------------------|       comienza con la guitarra 1, esta toca dos
B|-------------------|       veces y luego entra la guitarra 2 con su
G|-------------------| 10x   tablatura y la guitarra 1 sigue tocando
D|-------------------|       las 8 veces q le faltan
A|----0-4-7---7------|
E|--5----------------|

Guitarra 2
e|-9----9-10-12--14-14---12-10-9-7---14--12-10-9-7---5-7-5----------|
B|------------------------------------------------------------------|
G|------------------------------------------------------------------|
D|------------------------------------------------------------------|
A|------------------------------------------------------------------|
E|------------------------------------------------------------------|

   A                    Bm                 E7 (riff 1)
  hace ya tiempo que quiero decirte y no se

    Bm                   E7                 A (riff 2)
  una tristeza que en mi ya no puedo esconder

     A                           Bm       E7
  ya te escribí en miles de cartas mi drama de amor (riff 1)

    Bm               E7              A    A7    (riff 2)
  sin que llegara a mis manos una contestación


    D                            E                      C#m  F#
  vida hoy te envió estas flores que robe de un jardín

    Bm             E7                         A
  Esperando que así te acuerdes poco apoco de mi.


  E7         A                C#m              Bm   E7
  y si las flores pudieran hablar y decir que te quiero

           Bm              E7                    A
  si las rosas quisieran pedir que me llegues a amar

  E7          A                 C#m            Bm     E7
  y si las flores pudieran contarte que estoy de ti enamorado

           Bm                  E7                  C#m   A7
  se que acaso me responderías dando el corazón

            D                    E
  quien quita y suceda un milagro

               C#m                F#
  y al saber que robe casi un rosal para ti

       Bm                E7                          A
  puede ser que tal vez de repente tu te enamores de mi.



e|-9-9-9-9-9-9-7-5-4-2-0--------10-10-10-10-10-10-9-7-5-4-2-0-------|
B|-----------------------3------------------------------------------|
G|------------------------------------------------------------------|
D|------------------------------------------------------------------|
A|------------------------------------------------------------------|
E|------------------------------------------------------------------|

e|-------------7-5-5/4-2--------------------------------------------|
B|-----------------------2-3----------------------------------------|
G|-6-6-6-6-6-6----------------------7-7-7-7-7-7-6-4-2-1-------------|
D|------------------------------------------------------4-2---------|
A|------------------------------------------------------------------|
E|------------------------------------------------------------------|

    D                            E                      C#m  F#
  vida hoy te envió estas flores que robe de un jardín

    Bm             E7                         A
  Esperando que así te acuerdes poco apoco de mi.


  E7         A                C#m              Bm   E7
  y si las flores pudieran hablar y decir que te quiero

           Bm              E7                    A
  si las rosas quisieran pedir que me llegues a amar

  E7          A                 C#m            Bm     E7
  y si las flores pudieran contarte que estoy de ti enamorado

           Bm                  E7                  C#m   A7
  se que acaso me responderías dando el corazón

            D                    E
  quien quita y suceda un milagro

               C#m                F#
  y al saber que robe casi un rosal para ti

       Bm                E7                                          A
  puede ser que tal vez de repente................  te enamores de mi.

Final
e|-5-7-12--7-5-0--5-7-8-7-5-4/5------4-5---------------------------|
B|-----------------------------------4------------------------------|
G|------------------------------------------------------------------|
D|------------------------------------------------------------------|
A|------------------------------------------------------------------|
E|------------------------------------------------------------------|





Riff 1                            riff 2
e|-5-7-10--9-7-5-4-0---|          e|-12-10-10-9-7-5-4-2-0---|
B|---------------------|          B|------------------------|
G|---------------------|          G|------------------------|
D|---------------------|          D|------------------------|
A|---------------------|          A|------------------------|
E|---------------------|          E|------------------------|





Calificar esta versión:
Aviso: Este fichero es trabajo propio de su transcriptor y representa su interpretación personal de la canción. El material contenido en esta página es para exclusivo uso privado, por lo que se prohibe su reproducción o retransmisión, así como su uso para fines comerciales.
Más versiones de Si Las Flores, Nelson Ned
Si Las Flores
acordes
Si Las Flores
tablatura
Descubre más canciones de Nelson Ned