Laura Se Fue, Nek (bajo)

Autor: Anónimo | 21887 visualizaciones



00:38
G|----------------|----------------|----------------|----------------|
D|----------------|----------------|----------------|----------------|
A|---0-----0-0----|----------------|----------------|----------------|
E|----------------|---1-----1-1----|---3-----3-3----|---0-----0-0----|

G|----------------|----------------|----------------|----------------|
D|----------------|----------------|----------------|----------------|
A|---0-----0-0----|----------------|----------------|----------------|
E|----------------|---1-----1-1----|---3-----3-3----|---0-----0-0----|


00:53
G|----------------|----------------|----------------|----------------|
D|----------------|----------------|----------------|----------------|
A|----------------|----------------|---0-----0-0----|----------------|
E|---1-----1-1----|---3-----3-3----|----------------|---0-----0-0----|

G|----------------|----------------|----------------|----------------|
D|----------------|----------------|-------%--------|-------%--------|
A|----------------|----------------|----------------|----------------|
E|---1-----1-1----|---3---3--------|----------------|----------------|


01:05 estribillo
G|----------------|----------------|----------------|----------------|
D|----------------|----------------|----------------|----------------|
A|0-0-0-0-0-2-2-3-|--3-3-3-3-3-3-3-|-0-0-0-0-0-0----|----------------|
E|----------------|----------------|-------------0--|1-1-1-1-3-0-3-0-|

G|----------------|----------------|----------------|----------------|
D|----------------|----------------|----------------|----------------|
A|0-0-0-0-0-2-2-3-|--3-3-3-3-3-3-3-|-0-0-0-0-0-0----|----------------|
E|----------------|----------------|-------------0--|1-1-1-1-3-3-1-3-|

G|----------------|----------------|----------------|----------------|
D|----------------|----------------|----------------|-------%--------|
A|0-0-0-0-0-2-2-3-|--3-3-3-3-3-3-3-|0-0-0-0-0-------|----------------|
E|----------------|----------------|----------0-0-1-|----------------|


01:28
G|----------------|----------------|----------------|----------------|
D|----------------|----------------|----------------|----------------|
A|--0-----0-0-----|----------------|----------------|--------0-3-2---|
E|----------------|--1-----1-1--/5-|--3-----3-3--/0-|--0-0-3-------3-|

G|----------------|----------------|----------------|----------------|
D|----------------|----------------|----------------|----------------|
A|--0-------------|----------------|----------------|----------0-----|
E|-------0-5-7-8--|--1-----1-1-----|--3-----3-3-----|-0----0-0---0-0-|


01:43
G|----------------|----------------|----------------|----------------|
D|----------------|----------------|----------------|----------------|
A|----------------|----------------|--0-------------|----------------|
E|--1-----1-1--/1-|--3---3-3---0-3-|-------0-5-7-8--|-0----0-0-----0-|

G|----------------|----------------|----------------|----------------|
D|----------------|----------------|-------%--------|-------%--------|
A|----------------|----------------|----------------|----------------|
E|-1-----1-1----1-|----3---3-------|----------------|----------------|


01:54 estribillo
G|----------------|----------------|----------------|----------------|
D|----------------|----------------|----------------|----------------|
A|0-0-0-0-0-2-2-3-|3-3-3-3-3-3-3-3-|0-0-0-0-0-------|--------0-3-2---|
E|----------------|----------------|----------0-0-1-|--0-0-3-------3-|

G|----------------|----------------|----------------|----------------|
D|----------------|----------------|----------------|----------------|
A|0-0-0-0-0-2-2-3-|3-3-3-3-3-3-3-3-|0-0-0-0-0-0-----|----------------|
E|----------------|----------------|------------0-0-|1-1-1-1-3-3-3-3-|

G|----------------|----------------|----------------|----------------|
D|----------------|----------------|-------%--------|-------%--------|
A|--0-0-0-0-0-0---|---12~----------|----------------|----------------|
E|----------------|----------------|----------------|----------------|


02:13 puente
G|----------------|----------------|----------------|----------------|
D|----------------|----------------|----------------|--/3---2--------|
A|--5--------5-5--|--------------5-|--3-------------|-----------3-0--|
E|------------5---|--3---------3---|------------0-1-|----------------|

G|----------------|----------------|----------------|----------------|
D|----------------|----------------|----------------|----------------|
A|--5--------5-5--|----------------|--0-----2----3--|----------------|
E|------------5---|--3-3-3-----0-3-|----------------|---0-----/7-----|


02:28
G|----------------|----------------|-------------2--|--0-------------|
D|----------------|----------------|------------2---|----------------|
A|--5--------5-5--|------------2h3-|-0---------0----|----------------|
E|------------5---|-4----0---0-----|----------------|--------3---3-0-|

G|----------------|----------------|----------------|----------------|
D|----------------|-------------3--|-2-3------------|----------------|
A|----------------|------------0---|----------------|----------------|
E|--1----------0--|--1--------1----|------0-0-0-0-0-|0-0-0-0-0-0-0-0-|


02:43 solo de guitarra
G|----------------|----------------|----------------|----------------|
D|----------------|----------------|----------------|----------------|
A|4-4-4-4-4-4-4-4-|0-0-0-0-0-0-0-0-|--2-2-2-2-2-2-2-|-------2------2-|
E|----------------|----------------|----------------|-2----4------4--|

G|----------------|----------------|----------------|----------------|
D|----------------|----------------|----------------|----------------|
A|4-4-4-4-4-4-4-4-|0-0-0-0-0-0-0-0-|2-2-2-2-2-2-2---|----------------|
E|----------------|----------------|--------------2-|-4-4-4-4-4-4-4--|


02:58
G|----------------|----------------|----------------|----------------|
D|----------------|----------------|----------------|----------------|
A|0-0-0-0-0-0-0-0-|2-2-2-2-2-2---2-|4-4-4-4-4-4-4---|----------------|
E|----------------|------------4---|--------------2-|4-4-4-4-4---2-4-|

G|----------------|----------------|----------------|----------------|
D|----------------|----------------|----------------|----------------|
A|0-0-0-0-0-0-0---|--2---2---4--4--|----------------|----------------|
E|--------------2-|----------------|----------------|----------------|


03:10 estribillo final
G|----------------|----------------|----------------|----------------|
D|----------------|----------------|----------------|----------------|
A|4-4-4-4-4-6-6---|----------------|--------------0-|0-0-0-2-4---4---|
E|--------------0-|0-0-0-0-0-0-0-0-|2-2-2-2-2-4-4---|----------4---4-|

G|----------------|----------------|----------------|----------------|
D|----------------|----------------|----------------|----------------|
A|4-4-4-4-4-6-6---|----------------|--------------0-|0-0-0-2-2-2-2-2-|
E|--------------0-|0-0-0-0-0-0-0-0-|2-2-2-2-2-2-2---|----------------|

G|----------------|----------------|----------------|----------------|
D|----------------|----------------|----------------|----------------|
A|4-4-4-4-4-6-6---|----------------|--------------0-|---0-2-4---4-2--|
E|--------------0-|0-0-0-0-0-0-0-0-|2-2-2-2-2-4-4---|---------4------|

G|----------------|----------------|----------------|----------------|
D|----------------|----------------|----------------|----------------|
A|4-4-4-4-4-6-6---|----------------|----------------|0-0-0-2-2-2-2-2-|
E|--------------0-|0-0-0-0-0-0-0-0-|2-2-2-2-2-2-2-4-|----------------|

G|----------------|----------------|----------------|----------------|
D|----------------|-------%--------|-------%--------|-------%--------|
A|--4~~--4~~------|----------------|----------------|----------------|
E|----------------|----------------|----------------|----------------|

consultas a mi mail...





Calificar esta versión:
Aviso: Este fichero es trabajo propio de su transcriptor y representa su interpretación personal de la canción. El material contenido en esta página es para exclusivo uso privado, por lo que se prohibe su reproducción o retransmisión, así como su uso para fines comerciales.
Más versiones de Laura Se Fue, Nek
Laura Se Fue
acordes
Laura Se Fue
tablatura
Laura Se Fue
bajo
Laura Se Fue
bateria
Descubre más canciones de Nek