Pecadora, Nectar (tablatura)

Autor: SAMA JAZZ | 22957 visualizaciones



Esta es la cancion mas simpleque puede haber mi buen  asi q a practicar OK...

INTRO:

E----8-7-8-------8-7-8-------7-5-7-------7-5-7-------------
B--5-------5-5-5-------5-5-5-------5-5-5--------5-5--------
G----------------------------------------------------------
D----------------------------------------------------------
A----------------------------------------------------------
E----------------------------------------------------------

E----5-3-5--------5-3-5------------------------------------
B--5-------6-6-6---------6-6--3-5-6-6--5-5--6-5-5----------
G----------------------------------------------------------
D----------------------------------------------------------
A----------------------------------------------------------
E----------------------------------------------------------

E----8-7-8-------8-7-8-------7-5-7-------7-5-7-------------
B--5-------5-5-5-------5-5-5-------5-5-5--------5-5--------
G----------------------------------------------------------
D----------------------------------------------------------
A----------------------------------------------------------
E----------------------------------------------------------

E----5-3-5--------5-3-5------------------------------------
B--5--------6-6-6--------6-6---3-5-6-6-5-5----10-8-10------
G----------------------------------------------------------
D----------------------------------------------------------
A----------------------------------------------------------
E----------------------------------------------------------


CHEVERE PX YA TA Y ESO ES TODO EJEJJE.....

Si quieren mas comuniquense nomas y les paso cualquier nota OK..

depredador_1238@hotmail.com 





Calificar esta versión:
Aviso: Este fichero es trabajo propio de su transcriptor y representa su interpretación personal de la canción. El material contenido en esta página es para exclusivo uso privado, por lo que se prohibe su reproducción o retransmisión, así como su uso para fines comerciales.
Más versiones de Pecadora, Nectar
Pecadora
acordes
Pecadora
tablatura
Pecadora (ver 2)
tablatura
Descubre más canciones de Nectar