Arbolito, Nectar (tablatura)

Autor: sama jazz | 39240 visualizaciones



DESDE EL RICO CHIMBOTE LLEGUE YO.... CON ESTA INTRO DE LA PTM DEL FAMOSO Y EXITOSO GRUPO NECTAR
                        CON CARIÑO

INTRO:

1------------------------------------------------------
2------------------------------------------------------
3--4-6-----4-----4-6---6-4-7----4-6-----4---4-6---6-4--
4------4-6-----4-----4--------------4-6---4-----4------
5------------------------------------------------------
6------------------------------------------------------
  (2 veces)


1---10-10-10-------10-10---------------------------------
2--12--12-12-14-12-12----12/14-14-14---12-10-------11-13-11
3-11---------------------------------------12-12------
4-------------------------------------------------------
5-------------------------------------------------------
6-------------------------------------------------------
  (2 veces)


1-----------------------------------------------------------
2------10/12-12 12-------10/12-12-12------10----------------
3-11-11-----------11-11--------------11-11------------------
4-------------------------------------------9-11-9-11-9---11
5-------------------------------------------------------12--
6-----------------------------------------------------------

1-----------------------------------------------------------
2------10/12-12 12-------10/12-12-12------10----------------
3-11-11-----------11-11--------------11-11------------------
4-------------------------------------------9-11-9-11-9---11
5-------------------------------------------------------12--
6-----------------------------------------------------------
    (2 veces)


1---------------------------------------------
2---------------------------------------------
3---7-7-9-11----------------------------------
4---------------------------------------------
5---------------------------------------------
6---------------------------------------------





Comentarios del colaborador: LaCuerda

Calificar esta versión:
Aviso: Este fichero es trabajo propio de su transcriptor y representa su interpretación personal de la canción. El material contenido en esta página es para exclusivo uso privado, por lo que se prohibe su reproducción o retransmisión, así como su uso para fines comerciales.
Más versiones de Arbolito, Nectar
Arbolito
tablatura
Arbolito (ver 2)
tablatura
Descubre más canciones de Nectar