Desde Que Te Vi, Natalino (tablatura)

Autor: Anónimo | 38120 visualizaciones



Intro:

   E           G#m       F#m
e|-0----0-2-0-2/4---------2----------4-4-4-4-4----|
B|-0-----------------4---------2----0-0-0-0-0-----|
G|-1----0-2-0-2/4----4----2----2------------------|X2
D|-2----------------------------------------------|
A|-2----------------------------------------------|
E|-0----------------------------------------------|

   E                   G#m           F#m
Hoy hermosa de mis sueños, llegas a llenar mi vida
e|-0------------0-2-0-2/4-------------2----------------4-4-4-4-4----|
B|-0---------------------------4-------------2--------0-0-0-0-0-----|
G|-1------------0-2-0-2/4------4------2------2----------------------|
D|-2----------------------------------------------------------------|
A|-2----------------------------------------------------------------|
E|-0----------------------------------------------------------------|
   E                   G#m           F#m
Nunca todo es tan perfecto, pero casi es lo que siento
e|-0------------0-2-0-2/4-------------2----------------4-4-4-4-4----|
B|-0---------------------------4-------------2--------0-0-0-0-0-----|
G|-1------------0-2-0-2/4------4------2------2----------------------|
D|-2----------------------------------------------------------------|
A|-2----------------------------------------------------------------|
E|-0----------------------------------------------------------------|

A               B      G#m             C#m
El amor es mucha piel, ya lo sabes desde ayer
A             B
El amor es mucha piel...

E                   G#m                  F#m
El amor es tan distinto, ahora que te conocí
E                 G#m                 F#m
Esas marcas de la edad que se pueden ya borrar

A          B        G#m                C#m
Desde que te conocí, desde el día en que te vi
A            B
El amor es para ti...

ESTRIBILLO

G#m          C#m A                      B
Desde que te vi, una flecha me clavaste por amor
G#m           C#m   F#m            G#m         C#m
Uuuun embrujo fue,  y cayendo entre tus redes desperté
    A          B
ahora tú eres mi vida...

E                     G#m                        F#m
En las vueltas de la vida, y la vuelta de la esquina
E                     G#m                    F#m
Junto a las cosas bonitas, hay otras cosas distintas

A             B     G#m                C#m
Desde que te conocí, desde el día en que te vi
A              B
El amor es para ti...


Repite el estribillo un par de veces más...





Calificar esta versión:
Aviso: Este fichero es trabajo propio de su transcriptor y representa su interpretación personal de la canción. El material contenido en esta página es para exclusivo uso privado, por lo que se prohibe su reproducción o retransmisión, así como su uso para fines comerciales.
Más versiones de Desde Que Te Vi, Natalino
Desde Que Te Vi
acordes
Desde Que Te Vi (ver 2)
acordes
Desde Que Te Vi
tablatura
Descubre más canciones de Natalino