Un Pato, Natalia Lafourcade (acordes) (ver 2)

Autor: marce13 | 42949 visualizaciones

NOTAS

              EADGBe
Dmaj7   -     054670
E7      -     076780
Em7     -     022030
A7      -     002020
D7      -     557575
G       -     355433
Gm6     -     353333
F#m7    -     242252
Bm7     -     224232

RITMO(bossa nova)

   Dmaj7                                       E7
e|---------------------------------------------|----------------------------------------|
B|----------7---------7---------7-----------7--|--------8--------8---------8----------8-|
G|----------6---------6---------6-----------6--|--------7--------7---------7----------7-|
D|----------4---------4---------4-----------4--|--------6--------6---------6----------6-|
A|---5--------------------5--------------------|-7-------------------7------------------|
E|--------------55-------------------55--------|----------77-------------------77-------|

  Em7               A7
e|-----------------------------------------|
B|---------3--------3---------2----------2-|
G|---------0--------0---------0----------0-|
D|---------2--------3---------2----------2-|
A|-2--------------------0---------00-------|
E|------------00---------------------------|



   Dmaj7
Un pato
                       E7
que va cantando alegremente

cua cua
                             Em7
cuando se encuentra un lindo gato
      A7
miau miau
                   Dmaj7
para cantar bossa nova

    Dmaj7
Un ganso
                     E7
se entusiasmo alegremente

cua cua
                     Em7
para cantar hacia la gente

cua cua
 A7                   Dmaj7
y un perrito que ahi estaba

empezó a cantar
 D7                    G
cuando quieriaaaaa ensayar

el pobre pato  se desafino
E7             A7       Dmaj7     D7
  cuchi cuchi cu no le sale

         G         Gm6              F#m7  Bm7
Su notas feas eran peor que las del gato
        G       Gm6           F#m7  Bm7
La voz pato era mas que un desacato
G               F#m7                           B7
y en al nota final lo empujaron al agua
Em7    A7        Dmaj7
y  se  puso  a  nadar

Dmaj7
Cui, cui cui  lara la !!!
E7
Cui cui cui
A7
cui cui cui
Dmaj7                       E7
Un pato se entusiasmo alegremente

cua cua
                      Em7
para cantar hacia la gente

 cua cua
  A7                Dmaj7
y les canta bossa nova


D7                      G
cuando quieriaaaaa ensayar

el pobre pato  se desafino
E7              A7         Dmaj7     D7
  cuchi cuchi cu no le sale

         G         Gm6              F#m7   Bm7
Su notas feas eran peor que las del gato
       G       Gm6           F#m7  Bm7
La voz pato era mas que un desacato
G            F#m7                  B7
y en al nota final lo empujaron al agua
Em7    A7        Dmaj7
y  se  puso  a  nadar

Dmaj7
Cui, cuo cui cuo cui co  lara la !!!
E7
Cui cui cui
A7
cui cui cui

Dmaj7       E7    Em7    A7
un pato

Dmaj7       E7    Em7       A7
cui cui cui          cui cui

Dmaj7
dibi rubi rubi subiru
Calificar esta versión:
Aviso: Este fichero es trabajo propio de su transcriptor y representa su interpretación personal de la canción. El material contenido en esta página es para exclusivo uso privado, por lo que se prohibe su reproducción o retransmisión, así como su uso para fines comerciales.
Más versiones de Un Pato, Natalia Lafourcade
Un Pato
acordes
Un Pato (ver 2)
acordes
Descubre más canciones de Natalia Lafourcade