Elefantes, Natalia Lafourcade (tablatura)

Autor: Anónimo | 26918 visualizaciones

INTRO

E|-----X--|----X--|------X---|--X--||-----X--|----X--|------X---|----X--X-|
B|-----6--|----4--|------2---|--X--||-----6--|----4--|------2---|----X--X-|
G|-----6--|----4--|------2---|--6--||-----6--|----4--|------2---|----6--6-|
D|-----6--|----4--|------2---|--5--||-----6--|----4--|------2---|----5--5-|
A|-----X--|--4----|------X---|--X--||-----X--|--4----|------X---|----X--X-|
E|--6-----|--- X--|---2------|--5--||--6-----|--- X--|---2------|--5----5-|


VERSOS 1, 2, 3										
E||-----X--|----X--|------X---|----X--|-----X--|----X--|------X---|----X----|
B||-----6--|----4--|------2---|----X--|-----6--|----4--|------2---|----X----|
G||-----6--|----4--|------2---|----6--|-----6--|----4--|------2---|----6----|
D||-----6--|----4--|------2---|----5--|-----6--|----4--|------2---|----5----|
A||-----X--|--4----|------X---|----X--|-----X--|--4----|------X---|----X----|
E||--6-----|--- X--|---2------|--5----|-5-6----|--- X--|---2------|--5------|

E||-----X--|----X--|------X---|----X--|-----X--|----X--|------X---|----X----|
B||-----6--|----4--|------2---|----X--|-----6--|----4--|------2---|----X----|
G||-----6--|----4--|------2---|----6--|-----6--|----4--|------2---|----6----|
D||-----6--|----4--|------2---|----5--|-----6--|----4--|------2---|----5----|
A||-----X--|--4----|------X---|----X--|-----X--|--4----|------X---|----X----|
E||-5-6----|--- X--|---2------|--5----|-5-6----|--- X--|---2------|--5------|

E||-----X--|----X--|------X---|----X--|-----X--|----X--|------X---|----X----|
B||-----6--|----4--|------2---|----X--|-----6--|----4--|------2---|----X----|
G||-----6--|----4--|------2---|----6--|-----6--|----4--|------2---|----6----|
D||-----6--|----4--|------2---|----5--|-----6--|----4--|------2---|----5----|
A||-----X--|--4----|------X---|----X--|-----X--|--4----|------X---|----X----|
E||-5-6----|--- X--|---2------|--5----|-5-6----|--- X--|---2------|----5----|
					
E||-----X--|----X--|------X---|----X--|-----X--|----X--|------X---|------X---X-|--X---X-X-|
B||-----6--|----4--|------2---|----X--|-----6--|----4--|------2---|------X---X-|--6---6-5-|
G||-----6--|----4--|------2---|----6--|-----6--|----4--|------2---|------6---6-|--6---5-5-|
D||-----6--|----4--|------2---|----5--|-----6--|----4--|------2---|------5---5-|--6---6-5-|
A||-----X--|--4----|------X---|----X--|-----X--|--4----|------X---|------X---X-|--X---5-X-|
E||-5-6----|--- X--|---2------|----5--|---6----|--- X--|---2------|----5-----5-|--6---X-5-|

1
quiero buscar con el ritmo de los elefantes y rinocerontes
y saborear como un niño saborea un helado  de cajeta
quiero caminar sin zapatos y sentir las piedras
despues volar y ver si el cielo puedo yo tocar
2
quiero montar una bicicleta y llegar al mar
despues nadar y toparme una sirena sin tener que respirar
quiero caminar sin zapatos y sentir la arena
despues volar y soñar que estoy despierta(o)


CORO (RASGEO)					
E|--X-X--X--X-X-X-X-X--X-X--X--X-X-X-X-X^|
B|--6-6--X--6-6-6-6-5--4-4--X--4-4-4-4-4^|
G|--6-6--X--6-6-6-6-5--4-4--X--4-4-4-4-4^|
D|--6-6--X--6-6-6-6-5--4-4--X--4-4-4-4-4^|
A|--X-X--X--X-X-X-X-X--X-X--X--X-X-X-X-X^|
E|--6-6--X--6-6-6-6-5--4-4--X--4-4-4-4-4^|

    imaginar, tres elefantes en el cielo

E|--X-X--X--X-X-X-X-X--X-X--X--X-X-X-X-X^|
B|--6-6--X--6-6-6-6-5--4-4--X--4-4-4-4-4^|
G|--6-6--X--6-6-6-6-5--4-4--X--4-4-4-4-4^|
D|--6-6--X--6-6-6-6-5--4-4--X--4-4-4-4-4^|
A|--X-X--X--X-X-X-X-X--X-X--X--X-X-X-X-X^|
E|--6-6--X--6-6-6-6-5--4-4--X--4-4-4-4-4^|

    y saborear los betabeles 

E|--X-X--X--X-X-X-X-X--X-X--X--X-X-X-X-X^|
B|--6-6--X--6-6-6-6-5--4-4--X--4-4-4-4-4^|
G|--6-6--X--6-6-6-6-5--4-4--X--4-4-4-4-4^|
D|--6-6--X--6-6-6-6-5--4-4--X--4-4-4-4-4^|
A|--X-X--X--X-X-X-X-X--X-X--X--X-X-X-X-X^|
E|--6-6--X--6-6-6-6-5--4-4--X--4-4-4-4-4^|

y en chayotes caminar sin espinar tus dedos 

E|--X-X--X--X-X-X-X-X--X-X--X--X-X-X-X-X--X|
B|--6-6--X--6-6-6-6-5--4-4--X--4-4-4-4-4--4|
G|--6-6--X--6-6-6-6-5--4-4--X--4-4-4-4-4--4|
D|--6-6--X--6-6-6-6-5--4-4--X--4-4-4-4-4--4|
A|--X-X--X--X-X-X-X-X--X-X--X--X-X-X-X-X--4|
E|--6-6--X--6-6-6-6-5--4-4--X--4-4-4-4-4--4|

       y despues volar tocar el cielo      y

E||-----X--|----X--|------X---|----X--|-----X--|----X--|------X---|----X----|
B||-----6--|----4--|------2---|----X--|-----6--|----4--|------2---|----X----|
G||-----6--|----4--|------2---|----6--|-----6--|----4--|------2---|----6----|
D||-----6--|----4--|------2---|----5--|-----6--|----4--|------2---|----5----|
A||-----X--|--4----|------X---|----X--|-----X--|--4----|------X---|----X----|
E||---6----|--- X--|---2------|--5----|-5-6----|--- X--|---2------|--5------|

      soñar 		y soñar

3
quiero buscar con el ritmo de los elefantes y rinocerontes
y conocer esa magia extasiada  de la que la gente habla
quiero caminar sin zapatos y sentir la mente de los hombres (mujeres)
despues volar y entonces si te amare
te amare


RASGEO
i-imaginar, tres elefantes en el cielo
y saborear los betabeles 
y en chayotes caminar sin espinar mis dedos 
y despues volar tocar el cielo 
y soñar y soñar

RASGEO
imaginar, tres elefantes en el cielo
y saborear los betabeles 
y en chayotes caminar sin espinar tus dedos 
y despues volar tocar el cielo 
y regresar

RASGEO
imaginar, tres elefantes en el cielo
y saborear los betabeles 
y en chayotes caminar sin espinar mis dedos 
y despues volar tocar el cielo 
y regresar

RASGEO
imaginar, tres elefantes ...
 ...los betabeles 
y en chayotes caminar sin espinar mis dedos...  
ir al  cielo y regresar tocar las nubes
y pensar 


E||-----X--|----X--|------X---|----X--|-----X--|----X--|------X---|------X---X-|--X---X-X-|
B||-----6--|----4--|------2---|----X--|-----6--|----4--|------2---|------X---X-|--6---6-5-|
G||-----6--|----4--|------2---|----6--|-----6--|----4--|------2---|------6---6-|--6---5-5-|
D||-----6--|----4--|------2---|----5--|-----6--|----4--|------2---|------5---5-|--6---6-5-|
A||-----X--|--4----|------X---|----X--|-----X--|--4----|------X---|------X---X-|--X---5-X-|
E||-5-6----|--- X--|---2------|----5--|---6----|--- X--|---2------|----5-----5-|--6---X-5-|

    si te amare regresare si te amare...
Calificar esta versión:
Aviso: Este fichero es trabajo propio de su transcriptor y representa su interpretación personal de la canción. El material contenido en esta página es para exclusivo uso privado, por lo que se prohibe su reproducción o retransmisión, así como su uso para fines comerciales.
Más versiones de Elefantes, Natalia Lafourcade
Elefantes
acordes
Elefantes (ver 2)
acordes
Elefantes (ver 3)
acordes
Elefantes
tablatura
Descubre más canciones de Natalia Lafourcade