Bluebird, Naruto (tablatura) (ver 2)

Autor: ronixp | 48177 visualizaciones



bueno chicos estaba buscando tablaturas de naruto haci q encontre esta ps comente ps!!!:D

-------------------------------------------------------------------------------
			     BLUE BIRD - Ikimonogakari - TV SIZE
-------------------------------------------------------------------------------
Tabbed by: Iku
Email: ikumew@gmail.com

Tuning: Standard

e|-----2---4---5---4---2-------------2---4---5---5---7---5---7---9-----------|
B|--2----------------------------2-------------------------------------------|
G|---------------------------------------------------------------------------|
D|---------------------------------------------------------------------------|
A|---------------------------------------------------------------------------|
E|---------------------------------------------------------------------------|


   |      Habatai-ta-ra   |      |        modorenai to ite          |    

e|-----2---4---5---4---2----------2---9---7---2---9---5---0---0---2---2------|
B|--2------------------------------------------------------------------------|
G|---------------------------------------------------------------------------|
D|---------------------------------------------------------------------------|
A|---------------------------------------------------------------------------|
E|---------------------------------------------------------------------------|

   |   mezashita no wa    |       |      aoi aoi ano sora               |



( Solo )
e|----5---4---7---9---7---5----5---4---0--0--0-h-2--0--0--2---4--------------|
B|---------------------------------------------------------------------------|
G|---------------------------------------------------------------------------|
D|---------------------------------------------------------------------------|
A|---------------------------------------------------------------------------|
E|---------------------------------------------------------------------------|
(end solo )


(verse 1)

e|------2---3---4-------4---3---2---0---2---------------------------------0--|
B|--2---------------2--------------------------0---2-------2--2--2---3-------|
G|-----------------------------------------2---------------------------------|
D|---------------------------------------------------------------------------|
A|---------------------------------------------------------------------------|
E|---------------------------------------------------------------------------|
         
   |        kanashimi wo mada oboerarezu             |  | setsunasawa                   


e|--2---0---0--0--0---2---4---5---4-------------5---4---5--------5---4---2--0|
B|------------------------------------------2---------------2----------------|
G|---------------------------------------------------------------------------|
D|---------------------------------------------------------------------------|
A|---------------------------------------------------------------------------|
E|---------------------------------------------------------------------------|

     ima tsukami hajimeta           |   |     anata e to idaku kono 



e|---2-------------------------------5---4---2---0---0---2---2---------------|
B|-----------0---2----2--2--2---3--------------------------------------------|
G|-------2-------------------------------------------------------------------|
D|---------------------------------------------------------------------------|
A|---------------------------------------------------------------------------|
E|---------------------------------------------------------------------------|

     kanjou mo    | |          ima kotoba ni kawa-ateku         |
( end verse 1 )


( Bridge )

e|---2--2---4---5-----5--4--5---4----4--4---5---7---7---5---4---2-----2---5--|
B|---------------------------------------------------------------------------|
G|---------------------------------------------------------------------------|
D|---------------------------------------------------------------------------|
A|---------------------------------------------------------------------------|
E|---------------------------------------------------------------------------|

  | michi naru               sekai no yume kara mezamete         | |   kono 



e|---7---9-----2---5---7---9-----9---12---10---9~----------------------------|
B|---------------------------------------------------------------------------|
G|---------------------------------------------------------------------------|
D|---------------------------------------------------------------------------|
A|---------------------------------------------------------------------------|
E|---------------------------------------------------------------------------|

          hane wo hiroge tobi datsu                 |
( end bridge)


( Chorus )

e|-----2---4---5---4---2-------------2---4---5---5---7---5---7---9-----------|
B|--2----------------------------2-------------------------------------------|
G|---------------------------------------------------------------------------|
D|---------------------------------------------------------------------------|
A|---------------------------------------------------------------------------|
E|---------------------------------------------------------------------------|

   |      Habatai-ta-ra   |      |        modorenai to ite          | 

e|-----2---4---5---4---2----------2---9---7---2---9---5---0---0---2---2------|
B|--2------------------------------------------------------------------------|
G|---------------------------------------------------------------------------|
D|---------------------------------------------------------------------------|
A|---------------------------------------------------------------------------|
E|---------------------------------------------------------------------------|

   |   mezashita no wa    |       |      aoi aoi ano sora               |


e|-----2---4---5---4---2-------------2---4---5---5---7---5---7---9-----------|
B|--2----------------------------2-------------------------------------------|
G|---------------------------------------------------------------------------|
D|---------------------------------------------------------------------------|
A|---------------------------------------------------------------------------|
E|---------------------------------------------------------------------------|

  |   tsukinoketara     |   |          mitsukaru doushite             |

e|-----2---4---5---4---2----------2---9---7---2---9---5---0---0---2---2------|
B|--2------------------------------------------------------------------------|
G|---------------------------------------------------------------------------|
D|---------------------------------------------------------------------------|
A|---------------------------------------------------------------------------|
E|---------------------------------------------------------------------------|

    | furikuru hodo |            |       aoi aoi ano sora       |
  
e|----2---9---7---2---9---5---0---0---2---2-------------2---9---7---2---9--7-|
B|---------------------------------------------------------------------------|
G|---------------------------------------------------------------------------|
D|---------------------------------------------------------------------------|
A|---------------------------------------------------------------------------|
E|---------------------------------------------------------------------------|

   |       aoi aoi ano sora     |                    |   aoi    aoi     

e|----5---0---0---2---2------------------------------------------------------|
B|---------------------------------------------------------------------------|
G|---------------------------------------------------------------------------|
D|---------------------------------------------------------------------------|
A|---------------------------------------------------------------------------|
E|---------------------------------------------------------------------------|
  |   ano sora~       |

(ending solo)
e|--5---4---7---9---7---5----5---4---0--0--0-h-2--0--0--2---4----4----5---5~-|
B|---------------------------------------------------------------------------|
G|---------------------------------------------------------------------------|
D|---------------------------------------------------------------------------|
A|---------------------------------------------------------------------------|
E|---------------------------------------------------------------------------|





Comentarios del colaborador: http://tabs.ultimate-guitar.com/i/ikimono_gakari/blue_bird_tab.htm

Calificar esta versión:
Aviso: Este fichero es trabajo propio de su transcriptor y representa su interpretación personal de la canción. El material contenido en esta página es para exclusivo uso privado, por lo que se prohibe su reproducción o retransmisión, así como su uso para fines comerciales.
Más versiones de Bluebird, Naruto
Bluebird
tablatura
Bluebird (ver 2)
tablatura
Descubre más canciones de Naruto