Blue Bird, Naruto (tablatura) (ver 2)

Autor: roadro2010 | 33031 visualizaciones



Aquí les dejo mi Tablatura, a mi parecer está mucho mejor que cualquier otra. Espero les guste.



      Habataitara      modorenai to itte
e|----2-4-5--4-2--------2-4-5-5-7-5-7-9---------------|
B|--2-----------------2-------------------------------|
G|----------------------------------------------------|
D|----------------------------------------------------|
A|----------------------------------------------------|
E|----------------------------------------------------|

     Mezashita no wa     aoi    aoi   ano sora 
e|----2-4-5--4-2---------9-7----9-7---0-0--2-2--------|
B|--2------------------7------7-----------------------|
G|----------------------------------------------------|
D|----------------------------------------------------|
A|----------------------------------------------------|
E|----------------------------------------------------|


                      *SOLO*
e|--5--4--7-9-7-5---5-4-0-2-0-0-0-2--4----------------|
B|----------------------------------------------------|
G|----------------------------------------------------|
D|----------------------------------------------------|
A|----------------------------------------------------|
E|----------------------------------------------------|

      Kanashimi wa mada oboerarezu
e|----2-4-5---5-4--2-0-2----0-2-----------------------|
B|--2-------2-------------3---------------------------|
G|----------------------------------------------------|
D|----------------------------------------------------|
A|----------------------------------------------------|
E|----------------------------------------------------|

      Setsunasa wa ima tsukami hajimeta
e|----------0-2-0---0-0-0-2-4-5-4---------------------|
B|--2-2-2-3-------------------------------------------|
G|----------------------------------------------------|
D|----------------------------------------------------|
A|----------------------------------------------------|
E|----------------------------------------------------|

      Anata E to idaku kono kanjou mo
e|----2-4-5---5-4--2-0-2----0-2-----------------------|
B|--2-------2-------------3---------------------------|
G|----------------------------------------------------|
D|----------------------------------------------------|
A|----------------------------------------------------|
E|----------------------------------------------------|

      Ima kotoba ni kawatteku
e|------------5-4-2-0-0-2-2---------------------------|
B|---2-2-2-3------------------------------------------|
G|----------------------------------------------------|
D|----------------------------------------------------|
A|----------------------------------------------------|
E|----------------------------------------------------|

     Michi naru sekai mo  yume kara mezamete
e|-----2-4-5---5-4-5-4-----4-4-5-7---7-5-4-2----------|
B|---2------------------------------------------------|
G|----------------------------------------------------|
D|----------------------------------------------------|
A|----------------------------------------------------|
E|----------------------------------------------------|

    kono hane  wo hiroge  tobi datsu
e|---2-5-7-9----2-5-7-9----9-12-10-9------------------|
B|----------------------------------------------------|
G|----------------------------------------------------|
D|----------------------------------------------------|
A|----------------------------------------------------|
E|----------------------------------------------------|





      Habataitara      modorenai to itte
e|----2-4-5--4-2--------2-4-5-5-7-5-7-9---------------|
B|--2-----------------2-------------------------------|
G|----------------------------------------------------|
D|----------------------------------------------------|
A|----------------------------------------------------|
E|----------------------------------------------------|

     Mezashita no wa     aoi    aoi   ano sora 
e|----2-4-5--4-2---------9-7----9-7---0-0--2-2--------|
B|--2------------------7------7-----------------------|
G|----------------------------------------------------|
D|----------------------------------------------------|
A|----------------------------------------------------|
E|----------------------------------------------------|

     Tsuki nuketara   mitsukaru to shitte
e|----2-4-5--4-2--------2-4-5-5-7-5-7-9---------------|
B|--2-----------------2-------------------------------|
G|----------------------------------------------------|
D|----------------------------------------------------|
A|----------------------------------------------------|
E|----------------------------------------------------|

     Furikiru hodo       aoi    aoi   ano sora
e|----2-4-5--4-2---------9-7----9-7---0-0--2-2--------|
B|--2------------------7------7-----------------------|
G|----------------------------------------------------|
D|----------------------------------------------------|
A|----------------------------------------------------|
E|----------------------------------------------------|

     aoi   aoi   ano sora     aoi   aoi   ano sora
e|----9-7---9-7--0-0-2-2-------9-7---9-7--0-0-2-2-----|
B|--7------7-----------------7------7-----------------|
G|----------------------------------------------------|
D|----------------------------------------------------|
A|----------------------------------------------------|
E|----------------------------------------------------|

                        *FINAL*
e|--5--4--7-9-7-5---5-4-0-2-0-0-0-2--4---4-5----------|
B|----------------------------------------------------|
G|----------------------------------------------------|
D|----------------------------------------------------|
A|----------------------------------------------------|
E|----------------------------------------------------|



Pronto subiré Video Tutorial.
Saludos! o/





Calificar esta versión:
Aviso: Este fichero es trabajo propio de su transcriptor y representa su interpretación personal de la canción. El material contenido en esta página es para exclusivo uso privado, por lo que se prohibe su reproducción o retransmisión, así como su uso para fines comerciales.
Más versiones de Blue Bird, Naruto
Blue Bird
acordes
Blue Bird
tablatura
Blue Bird (ver 2)
tablatura
Descubre más canciones de Naruto