Amanecer, Nano Stern (tablatura)

Autor: Anónimo | 14974 visualizaciones



CEJILLO TERCER ESPACIO -y AFINAR LA 6ta en RE

---------5----------5----------5--------------------5---------5-
-8---------8----------7----------7--------7-6---------6---------
-----5---------5----------5-----------5---------5---------5-----
---7---------7----------7-----------7---------7---------7-------
----------------------------------------------------------------
-o-----0---0-----0----0------0---0------0---0-----0---0-----0---

--------------------------------5------------------------------------
-5--------5---5-------5-8---------8---------7---------5--------------
-----7----7---6---6---------5---------8---5------5--------7----7---7-
---7--------7-7-7---------7---------7----------7--------7----7-------
-0------0-----0-----0---0-----0---0-----0----------------------------
--------------------------------------------0------0------0------0---

------------------------------------0h2--
-1--------3-0-------0-----------3---3----
-----2----------0-------2---2-----2-2----
---2----------0-----------0--------------
-0------0--------------------------------
------------5-----5-----0-----0-----0----


se repite lo mismo todo el rato pero se cambia el bajo...
ahí se fijan uds...

CORO

Los pongo los acordes hacen un ritmo como el de la parte anterior

-3--3--2--1-0-2--
-0--0--3--3-1-3--
-5--5--2--2-2-2--
-5--5-----3-2----
-0--3-----1-0----
-------0------0--

Interludio guitarra

-------------0--------3-2--0----------5---------5-3-------5-7-----
-1-------1-------------------3------------3-----------5---5-----8-
-----0-----0------0---------------2-----2-----------5---------9---
---0------------0-------------------------------------------------
------------------------------------------------------------------
-0-----0-----0-------0--0------0------0------0----0-----0---0-----

---8-7--5-------5------
-----------6--------5-
---------5--------5---
----------------------
----------------------
0-------0-----0------0-

Hace tantas horas ya
Que se puso el sol
Y la noche oscura esta
Ya no veo na.

Cuéntame otro cuento más
No puedo dormir
Cuéntame de tu país
Cuéntame de ti

El amanecer
Se lleva con su luz mi oscuridad
El amanecer
Me trae con su paz la claridad

Hace tantas horas ya
Que se puso el sol
Y la noche oscura esta
Ya no veo na.

Las estrellas que se ven
Giran y se van
Sobre un eje universal
Como un espiral

El amanecer
Se lleva con su luz mi oscuridad
El amanecer
Me trae con su paz la claridad

El amanecer
Se lleva con su luz mi oscuridad
El amanecer
Me trae con su paz la claridad





Calificar esta versión:
Aviso: Este fichero es trabajo propio de su transcriptor y representa su interpretación personal de la canción. El material contenido en esta página es para exclusivo uso privado, por lo que se prohibe su reproducción o retransmisión, así como su uso para fines comerciales.
Más versiones de Amanecer, Nano Stern
Amanecer
acordes
Amanecer
tablatura
Descubre más canciones de Nano Stern