Lucha De Gigantes, Nacha Pop (bajo)

Autor: Anónimo | 15820 visualizaciones

Esta rola es muy facil solo hay que agarrar bieb los tiempos...

 EL BAJO COMIENZA EN    Me da miedo la enormidad...
               A            F#m          G  
G|--4---------|------------|------------|---------2--|
D|2---2-0-----|------------|------------|-----2-5----|
A|--------2-1-|0-----------|------------|---3--------|
E|---RAPIDO---|------------|2----0------|3-----------|
 
 ( CORO 1 Y 2 )
  Bm           F#m          G            F#m
G|------------|------------|------------|------------|
D|------4-2---|------------|------------|------4-2---|
A|2---------4-|---4--------|------------|----------4-|
E|------------|2-----2-2-2s|3-----3-----|2-----------|

  Em           Bm           F#m          G
G|------------|------------|------------|------------|
D|------------|-------4-2--|------4-----|------------|
A|-------2----|2----------4|------------|------------|
E|0--------0--|------------|2--2--------|3-----3--3--|

  F#m          Em
G|------------|------------|
D|------------|--------2---|
A|----4----4--|------2-----|
E|2-2---2----2|0----------0|

 ( Creo en los fantasmas... )
    G          A            D            Em
G|------------|------------|------------|------------|
D|------------|------------|-----4--2---|------------|
A|------------|------------|5-5-------5-|------------|
E|023----3-0--|5-----5-----|------------|0---------02|

  G            A            D            Em  
G|------------|------------|------------|------------|
D|------------|------------|------------|-----2-0----|
A|------------|------------|5-----------|---------2-1|
E|3-----------|5-----------|------------|0-----------|

 ( En un mundo... ) 
  A            F#m          G            F#m   Em
G|------------|------------|------------|------------|
D|------------|------------|------------|---4-----2-2|
A|0-----------|------------|-----5------|------------|
E|------------|2---------2h|3--------3-5|2-----0-----|

 ( Progresion Em, D/F#m )
  Em           D/F#m
G|------------|------------|
D|---------2-2|4-----------|
A|------------|------------|
E|0-----------|------2--2--|

 ( Deja que pasemos... ) HASTA EL FINAL
  G            A            D            Em
G|------------|------------|------------|------------|
D|------------|------------|------------|------------|
A|------------|------------|5-----------|7-----------|
E|3-----------|5-----------|------------|------------|

 En las ultimas vueltas si quieres que luzca el bajo puedes
 improvisar con la escala pentatonica menor de A o la escala 
 mayor de G.

 Dudas, preguntas o comentarios escribe a:laburka@yahoo.com.mx
Calificar esta versión:
Aviso: Este fichero es trabajo propio de su transcriptor y representa su interpretación personal de la canción. El material contenido en esta página es para exclusivo uso privado, por lo que se prohibe su reproducción o retransmisión, así como su uso para fines comerciales.
Más versiones de Lucha De Gigantes, Nacha Pop
Lucha De Gigantes
acordes
Lucha De Gigantes (ver 2)
acordes
Lucha De Gigantes
bajo
Descubre más canciones de Nacha Pop