I Dont Love You, My Chemical Romance (tablatura) (ver 2)

Autor: matt/slash | 42661 visualizaciones



 bueno esto es el intro asi que sigan el ritmo de la cancion y queda bien:


   E ----8--------------------
   B -----8-------------------
   G -------------------------
   A -------------------------       (X8)        
   D -------------------------
   E -------------------------

   E ---8---------------------
   B ----10-------------------
   G -------------------------
   A -------------------------      (X8)
   D -------------------------
   E ------------------------- 

   E ----8--------------------
   B -----8-------------------    
   G -------------------------   (X2)
   A -------------------------                  
   D -------------------------
   E -------------------------
 
   E ----7--------------------
   B -----8-------------------    
   G -------------------------   
   A -------------------------    (X2)               
   D -------------------------
   E -------------------------
   
   E ----8--------------------
   B -----8-------------------    
   G -------------------------  (X2)  
   A -------------------------                  
   D -------------------------
   E -------------------------

   E ----12-------------------
   B -------10----------------    
   G -------------------------   (X3)   
   A -------------------------                  
   D -------------------------
   E -------------------------
   
   
   E ----10-------------------
   B -------8----------------    
   G -------------------------   (X3)   
   A -------------------------                  
   D -------------------------
   E -------------------------
   
   AHI ESTA ESPERO QUE QUEDE BIEN





Calificar esta versión:
Aviso: Este fichero es trabajo propio de su transcriptor y representa su interpretación personal de la canción. El material contenido en esta página es para exclusivo uso privado, por lo que se prohibe su reproducción o retransmisión, así como su uso para fines comerciales.
Más versiones de I Dont Love You, My Chemical Romance
I Dont Love You
acordes
I Dont Love You (ver 2)
acordes
I Dont Love You (ver 3)
acordes
I Dont Love You (ver 4)
acordes
I Dont Love You (ver 5)
acordes
I Dont Love You
tablatura
I Dont Love You (ver 2)
tablatura
Descubre más canciones de My Chemical Romance