Dead!, My Chemical Romance (tablatura) (ver 2)

Autor: h3iiwa | 39295 visualizaciones



I. INTRO

Gtr 1
e|---------|
B|--<5>~~--|
G|---------|
D|---------|
A|---------|
E|---------|
Gtr 2
e|-------------------------------------|
B|-------------------------------------|
G|-------------------------------------|
D|--5-5-5-5-5-5-5\44--5-5-5-5-5-5-5-5--|
A|--5-5-5-5-5-5-5\44--5-5-5-5-5-5-5-5--|
E|--3-3-3-3-3-3-3\22--3-3-3-3-3-3-3-3--|

Gtr 1
e|-----------------------------------|-----------------------------------|
B|-----------------------------------|-----------------------------------|
G|--------------------------4-4-4-4--|------------------5-5-5-5/7-8-7-5--|
D|--5-5-5-5-5-5-5-5-4-4-4-4-4-4-4-4--|--2-2-2-2-2-2-2-2-5-5-5-5----------|
A|--5-5-5-5-5-5-5-5-5-5-5-5-2-2-2-2--|--2-2-2-2-2-2-2-2-3-3-3-3----------|
E|--3-3-3-3-3-3-3-3-2-2-2-2----------|--0-0-0-0-0-0-0-0------------------|
Gtr 2
e|-----------------------------------------------------------------------|
B|--13^(15)-13^(15)-13^(15)-13^(15)-13^(15)-13^(15)-13^(15)-13^(15)--12--|
G|-----------------------------------------------------------------------|
D|-----------------------------------------------------------------------|
A|-----------------------------------------------------------------------|
E|-----------------------------------------------------------------------|
(continued)
e|-----10^(12)r10----15^(17)~---------------|
B|----------------12----------15-17-17-17~--|
G|--12--------------------------------------|
D|------------------------------------------|
A|------------------------------------------|
E|------------------------------------------|
(continued)
e|-----------------12-12~-14^(15)-14^(15)---------------------------|
B|--12h13h15-12h15------------------------15-17-15-15^(17)-15^(17)--|
G|------------------------------------------------------------------|
D|------------------------------------------------------------------|
A|------------------------------------------------------------------|
E|------------------------------------------------------------------|
(continued)
e|------------------------------------------------------------------------|
B|--12h15-15^(17)-15^(17)-15^(17)-15^(17)-12h15p12-15p12p10-8p7p8---------|
G|----------------------------------------------------------------11p9p7--|
D|------------------------------------------------------------------------|
A|------------------------------------------------------------------------|
E|------------------------------------------------------------------------|
(continued)
e|-------|
B|--8~~--|
G|-------|
D|-------|
A|-------|
E|-------|


II. VERSE 1

Gtr 1
e|-----------------------------------|-----------------------------------|
B|-----------------------------------|-----------------------------------|
G|--------------------------4-4-4-4--|------------------5-5-5-5-5-5-5-5--|
D|--5-5-5-5-5-5-5-5-4-4-4-4-4-4-4-4--|--2-2-2-2-2-2-2-2-5-5-5-5-5-5-5-5--|
A|--5-5-5-5-5-5-5-5-4-4-4-4-2-2-2-2--|--2-2-2-2-2-2-2-2-3-3-3-3-3-3-3-3--|
E|--3-3-3-3-3-3-3-3-2-2-2-2----------|--0-0-0-0-0-0-0-0------------------|
(continued)
e|-----------------------------------|-----------------------------------|
B|-----------------------------------|-----------------------------------|
G|--------------------------4-4-4-4--|------------------5-5-5-5-5-5-5-5--|
D|----5---5---5---5\4-4-4-4-4-4-4-4--|--2-2-2-2-2-2-2-2-5-5-5-5-5-5-5-5--|
A|----5---5---5---5\4-4-4-4-2-2-2-2--|--2-2-2-2-2-2-2-2-3-3-3-3-3-3-3-3--|
E|--3-3-3-3-3-3-3-3\2-2-2-2----------|--0-0-0-0-0-0-0-0------------------|

Gtr 2
e|---------------------------------|------------------------------|
B|---------------------------------|------------------------------|
G|--12~-----12/14~-----12-11-9-11--|--------9-9------12-14/16\14--|
D|---x-------x--x-------x--x-x--x--|--------x-x-------x--x--x--x--|
A|--10~-----10/12~-----10--9-7--9--|--------7-7------10?12/14\12--|
E|---------------------------------|------------------------------|
(continued)
e|---------------------------------|------------------------------|
B|---------------------------------|------------------------------|
G|--12~-----12/14~-----12-11-9-11--|--------9-9----7-7-9-9-11-12--|
D|---x-------x--x-------x--x-x--x--|--------x-x----x-x-x-x--x--x--|
A|--10~-----10/12~-----10--9-7--9--|--------7-7----5-5-7-7--9-10--|
E|---------------------------------|------------------------------|


III. PRE-CHORUS

Gtr 1
e|-------------------------------|
B|-------------------------------|
G|------------------5~--7~-------|
D|--7~~-------------5~--7~-------|
A|--7~~-------------3~--5~-------|
E|--5~~--------------------------|
Gtr 2
e|-----------------------------------|
B|-----------------------------------|
G|------------------5-4-7-4----------|
D|--7-9-7-5-7-9-7-5---------7-4-5-0--|
A|-----------------------------------|
E|-----------------------------------|


IV. CHORUS

Gtr 1
e|------------------------------------|------------------------------------|
B|------------------------------------|------------------------------------|
G|--12121212121212121212121212121212--|--11111111111111111111111111111111--|
D|---x-x-x-x-x-x-x-x-x-x-x-x-x-x-x-x--|---x-x-x-x-x-x-x-x-x-x-x-x-x-x-x-x--|
A|--10101010101010101010101010101010--|---9-9-9-9-9-9-9-9-9-9-9-9-9-9-9-9--|
E|------------------------------------|------------------------------------|
(continued)
e|------------------------------------|-------------------------------------|2x
B|------------------------------------|-------------------------------------|
G|--14141414141414121212121212121212--|--16161616161616\141414141414141414--|
D|---x-x-x-x-x-x-x-x-x-x-x-x-x-x-x-x--|---x-x-x-x-x-x-x--x-x-x-x-x-x-x-x-x--|
A|--12121212121212101010101010101010--|--14141414141414\121212121212121212--|
E|------------------------------------|-------------------------------------|
Gtr 2
e|-----------------------------------|-----------------------------------|
B|-----------------------------------|-----------------------------------|
G|-----------------------------------|--4-4-4-4-4-4-4-4-4-4-4-4-4-4-4-4--|
D|--5-5-5-5-5-5-5-5-5-5-5-5-5-5-5-5--|--4-4-4-4-4-4-4-4-4-4-4-4-4-4-4-4--|
A|--5-5-5-5-5-5-5-5-5-5-5-5-5-5-5-5--|--2-2-2-2-2-2-2-2-2-2-2-2-2-2-2-2--|
E|--3-3-3-3-3-3-3-3-3-3-3-3-3-3-3-3--|-----------------------------------|
(continued)
e|-----------------------------------|-----------------------------------|2x
B|-----------------------------------|-----------------------------------|
G|--5-5-5-5-5-5-5-5-5-5-5-5-5-5-5-5--|--8-8-8-8-8-8-8-8-7-7-7-7-7-7-7-7--|
D|--5-5-5-5-5-5-5-5-5-5-5-5-5-5-5-5--|--x-x-x-x-x-x-x-x-7-7-7-7-7-7-7-7--|
A|--3-3-3-3-3-3-3-3-3-3-3-3-3-3-3-3--|--6-6-6-6-6-6-6-6-5-5-5-5-5-5-5-5--|
E|-----------------------------------|-----------------------------------|


V. PRE-VERSE

Gtr 1
e|-------------------------------------|
B|-------------------------------------|
G|-------------------------------------|
D|--5---------------5~~~~~~------------|
A|--5---------------5------------------|
E|--3---------------3------------------|
Gtr 2
e|--------------------------------<5>--|
B|-------------------------------------|
G|-------------------------------------|
D|--5-5-5-5-5-5-5-5-5-5-5-5-5-5-5------|
A|--5-5-5-5-5-5-5-5-5-5-5-5-5-5-5------|
E|--3-3-3-3-3-3-3-3-3-3-3-3-3-3-3------|


VI. VERSE 2

Gtr 1
e|--7--7--7--7------------------|--7--7--7--7-------------------|
B|--8--8--8--8---7-7-7-7-7-7-7--|--8--8--8--8---13131313131313--|
G|--7--7--7--7---7-7-7-7-7-7-7--|--7--7--7--7---12121212121212--|
D|------------------------------|-------------------------------|
A|------------------------------|-------------------------------|
E|------------------------------|-------------------------------|
(continued)
e|--7--7--7--7--------------------|--12--12--12--12--------------------|
B|--8--8--8--8---7-7-7-1010-1212--|--13--13--13--13-----8-10---8-10~~--|
G|--7--7--7--7---7-7-7--9-9-1111--|-------------------7------7---------|
D|--------------------------------|------------------------------------|
A|--------------------------------|------------------------------------|
E|--------------------------------|------------------------------------|

Gtr 2 - Repeat Gtr 1 Verse 1

[REPEAT CHORUS]

VII. BRIDGE

Both Guitars
e|-----|
B|-----|
G|-----|
D|--7--|
A|--7--|
E|--5--|

Effects
e|----------------------------------------------------------|
B|----8-7-8---8-7-8---12~-10~-8~---13-12-13-12-13--8~-10~~--|
G|--7-------7-----------------------------------------------|
D|----------------------------------------------------------|
A|----------------------------------------------------------|
E|----------------------------------------------------------|


Then,
Gtr 1
e|--------------------|------------------------------------|
B|--------------------|------------------------------------|
G|--1617161716171617--|--19191919191919192121212123232323--|
D|---x-x-x-x-x-x-x-x--|---x-x-x-x-x-x-x-x-x-x-x-x-x-x-x-x--|
A|--1415141514151415--|--17171717171717171919191921212121--|
E|--------------------|------------------------------------|
Gtr 2
e|--------------------|------------------------------------|
B|--------------------|------------------------------------|
G|--------------------|------------------------------------|
D|--------------------|--\\\pickslide\\\-------------------|
A|--------------------|-------------------\\\pickslide\\\--|
E|--------------------|------------------------------------|


VIII. SOLO

Gtr 1
e|-----------------------------------|-----------------------------------|
B|-----------------------------------|-----------------------------------|
G|-----------------------------------|--4-4-4-4-4-4-4-4-4-4-4-4-4-4-4-4--|
D|--5-5-5-5-5-5-5-5-5-5-5-5-5-5-5-5--|--4-4-4-4-4-4-4-4-4-4-4-4-4-4-4-4--|
A|--5-5-5-5-5-5-5-5-5-5-5-5-5-5-5-5--|--2-2-2-2-2-2-2-2-2-2-2-2-2-2-2-2--|
E|--3-3-3-3-3-3-3-3-3-3-3-3-3-3-3-3--|-----------------------------------|
(continued)
e|-----------------------------------|-----------------------------------|2x
B|-----------------------------------|-----------------------------------|
G|--5-5-5-5-5-5-5-5-5-5-5-5-5-5-5-5--|--7-7-7-7-7-7-7-7-7-7-7-7-7-7-7-7--|
D|--5-5-5-5-5-5-5-5-5-5-5-5-5-5-5-5--|--7-7-7-7-7-7-7-7-7-7-7-7-7-7-7-7--|
A|--3-3-3-3-3-3-3-3-3-3-3-3-3-3-3-3--|--5-5-5-5-5-5-5-5-5-5-5-5-5-5-5-5--|
E|-----------------------------------|-----------------------------------|

Gtr 2
e|-------------------------------------------------------------------|
B|------------------------------------8-8~---------------------------|
G|----------4-5-5-7-7^(9)~-7p5-7~---7-------4h5p4-2h4p2-0h2p0--------|
D|--5~-5~-5---------------------------------------------------2------|
A|--------------------------------------------------------------3~~--|
E|-------------------------------------------------------------------|
(continued)
e|-------------------------5----------------|
B|---------------------------7--------------|
G|--2p0------------------------7-5----------|
D|------2h4p2-0h2p0----------------7-5-4~~--|
A|------------------2-0~~-------------------|
E|------------------------------------------|
(continued)
e|------------------------------------------------------------|
B|--3-----3-----3-----3-----3-----3-----3-----3---------------|
G|--5^(7)-5^(7)-5^(7)-5^(7)-5^(7)-5^(7)-5^(7)-5^(7)~--5-4-2~--|
D|------------------------------------------------------------|
A|------------------------------------------------------------|
E|------------------------------------------------------------|
(continued)
e|--------7------------7----------|
B|------8---8~-------8---8~~--15--|
G|--7h9--------5h7h9--------------|
D|--------------------------------|
A|--------------------------------|
E|--------------------------------|
(continued)
e|--17p15----19p15----17p15----19p15----17p15----19p15----17p15----19p15-----|
B|--------15-------15-------15-------15-------15-------15-------15-------15--|
G|---------------------------------------------------------------------------|
D|---------------------------------------------------------------------------|
A|---------------------------------------------------------------------------|
E|---------------------------------------------------------------------------|
(continued)
e|--20p15----19p15----17p15----19p15-----19-17-15-15------15------15-------|
B|--------15-------15-------15-------15-----------19^(20)-19^(20)-19^(20)--|
G|-------------------------------------------------------------------------|
D|-------------------------------------------------------------------------|
A|-------------------------------------------------------------------------|
E|-------------------------------------------------------------------------|

End the solo on:
Gtr 1
e|-------------|---------------------------------|
B|-------------|---------------------------------|
G|-------------|--((whistle))---\\\pickslide\\\--|
D|--5----------|---------------------------------|
A|--5----------|---------------------------------|
E|--3----------|---------------------------------|
Gtr 2
e|--15---------|---------------------------------|
B|--19^(20)~~--|---------------------------------|
G|-------------|---------------------------------|
D|-------------|----------------\\\pickslide\\\--|
A|-------------|---------------------------------|
E|-------------|---------------------------------|


IX. OUTRO

Gtr 1
e|------------------|------------------|------------------|----------------|4x
B|------------------|------------------|------------------|----------------|
G|--12-9-7-12-7--7--|--12-9-7-14-9--9--|--12-9-7-12-9--9--|--7-9-12-14-14--|
D|---x-x-x--x-x--x--|---x-x-x--x-x--x--|---x-x-x--x-x--x--|--x-x--x--x--x--|
A|--10-7-5-10-5--5--|--10-7-5-12-7--7--|--10-7-5-10-7--7--|--5-7-10-12-12--|
E|------------------|------------------|------------------|----------------|
Gtr 2
e|-----------------------------------|-----------------------------------|
B|-----------------------------------|-----------------------------------|
G|-----------------------------------|--4-4-4-4-4-4-4-4-4-4-4-4-4-4-4-4--|
D|--5-5-5-5-5-5-5-5-5-5-5-5-5-5-5-5--|--4-4-4-4-4-4-4-4-4-4-4-4-4-4-4-4--|
A|--5-5-5-5-5-5-5-5-5-5-5-5-5-5-5-5--|--2-2-2-2-2-2-2-2-2-2-2-2-2-2-2-2--|
E|--3-3-3-3-3-3-3-3-3-3-3-3-3-3-3-3--|-----------------------------------|
(continued)
e|-----------------------------------|-----------------------------------|4x
B|-----------------------------------|-----------------------------------|
G|--5-5-5-5-5-5-5-5-5-5-5-5-5-5-5-5--|--7-7-7-7-7-7-7-7-7-7-7-7-7-7-7-7--|
D|--5-5-5-5-5-5-5-5-5-5-5-5-5-5-5-5--|--7-7-7-7-7-7-7-7-7-7-7-7-7-7-7-7--|
A|--3-3-3-3-3-3-3-3-3-3-3-3-3-3-3-3--|--5-5-5-5-5-5-5-5-5-5-5-5-5-5-5-5--|
E|-----------------------------------|-----------------------------------|

End on:
Gtr 1
e|---------------------|-----|
B|---------------------|-----|
G|---------------------|-----|
D|--5------------------|--5--|
A|--5------------------|--5--|
E|--3------------------|--3--|
Gtr 2
e|----------------<5>--|-----|
B|----------------<5>--|-----|
G|---------------------|-----|
D|--5-5-5-5-5-5--------|--5--|
A|--5-5-5-5-5-5--------|--5--|
E|--3-3-3-3-3-3--------|--3--|


Ojala y les guste esta version xD





Comentarios del colaborador: ojala y les guste comentesn!1

Calificar esta versión:
Aviso: Este fichero es trabajo propio de su transcriptor y representa su interpretación personal de la canción. El material contenido en esta página es para exclusivo uso privado, por lo que se prohibe su reproducción o retransmisión, así como su uso para fines comerciales.
Más versiones de Dead!, My Chemical Romance
Dead!
acordes
Dead!
tablatura
Dead! (ver 2)
tablatura
Descubre más canciones de My Chemical Romance