Dead, My Chemical Romance (tablatura)

Autor: juankx | 36669 visualizaciones



e|-----------------------------------------------------------------------------------------|
B|------------5-3b5~-3---3-5-8-8-------------------------------------------10-7------------|
G|-----33-5-7----------5---------4-5p4-4-5p4-4-5p4------------------------------9-8-7------|
D|-5-5-------------------------------------------------7p5-5-7p5-5-7p5----------------10---|
A|-------------------------------------------------5-3-----------------------------------6-|
E|---------------------------------------------------------------------5-3-----------------|

e|-----------------------------------7-------------7-----|17p15----19p15----(x4)----------|
B|-5-b5-5-b5-5-b5-5-b5-----------7-8---8-------7-8--8-15-|------15-------15---------------|
G|-7-b7-7-b7-7-b7-7-b7p5-4-5/7h9---------5/7h9-----------|--------------------------------|
D|-------------------------------------------------------|--------------------------------|
A|-------------------------------------------------------|--------------------------------|
E|-------------------------------------------------------|--------------------------------|

e|-20p15----19p15----17p15----19p15----19-17-15-----15-----15-|
B|-------15-------15-------15-------15----------b18----b18----|
G|------------------------------------------------------------|
D|------------------------------------------------------------|
A|------------------------------------------------------------|
E|------------------------------------------------------------|

este solo ta bien xido y muy facil
       






Calificar esta versión:
Aviso: Este fichero es trabajo propio de su transcriptor y representa su interpretación personal de la canción. El material contenido en esta página es para exclusivo uso privado, por lo que se prohibe su reproducción o retransmisión, así como su uso para fines comerciales.
Más versiones de Dead, My Chemical Romance
Dead
acordes
Dead (ver 2)
acordes
Dead
tablatura
Descubre más canciones de My Chemical Romance