Dios Esta Aquí, Música Religiosa (tablatura) (ver 2)

Autor: Anónimo | 16354 visualizaciones

1M------------------------------------------------------------------
2A--4-7---4------9-9-9-9--7-5-4-7---9-9-9-9-9/11-11-9-11-11/12-11-9-
3D------6---4--4------------------4---------------------------------
4G------------------------------------------------------------------
5B------------------------------------------------------------------
6M------------------------------------------------------------------


----------------------
--555555-4------------
4----------6-6-6-4-3-4
----------------------
----------------------

Esta cancion va dedicada para todas mis amigas del cole... ke siempre
rockeamos con esta song,las amo chicas.

MaRy
Calificar esta versión:
Aviso: Este fichero es trabajo propio de su transcriptor y representa su interpretación personal de la canción. El material contenido en esta página es para exclusivo uso privado, por lo que se prohibe su reproducción o retransmisión, así como su uso para fines comerciales.
Más versiones de Dios Esta Aquí, Música Religiosa
Dios Esta Aqui
acordes
Dios Esta Aquí
tablatura
Dios Esta Aquí (ver 2)
tablatura
Descubre más canciones de Música Religiosa