Saria´s Song, Música De Videojuegos (tablatura)

Autor: Anónimo | 33988 visualizaciones



Sarias song

e-----------------------------12-10-------------------------------
B----10-12-----10-12----10-12--------12-13-12---------------------
G-10--------10-------10----------------------12------------12-----
D-----------------------------------------------14---12-14----14--
A-----------------------------------------------------------------
E-----------------------------------------------------------------

e-----------------------------12-10-------12----------------------
B----10-12-----10-12----10-12-------12-13---12---12---------------
G-10--------10-------10-----------------------12---12-------------
D----------------------------------------------------12-14--------
A-----------------------------------------------------------------
E-----------------------------------------------------------------

e--------------------------------------------10-12----------------
B--------8-10-12--13-12-----------8-10-12--13---------------------
G-7-9-10----------------9--7-9-10---------------------------------
D-----------------------------------------------------------------
A-----------------------------------------------------------------
E-----------------------------------------------------------------





Calificar esta versión:
Aviso: Este fichero es trabajo propio de su transcriptor y representa su interpretación personal de la canción. El material contenido en esta página es para exclusivo uso privado, por lo que se prohibe su reproducción o retransmisión, así como su uso para fines comerciales.
Más versiones de Saria´s Song, Música De Videojuegos
Saria´s Song
tablatura
Saria´s Song (ver 2)
tablatura
Descubre más canciones de Música De Videojuegos