Mario Bros, Música De Videojuegos (tablatura) (ver 4)

Autor: Anónimo | 27175 visualizaciones



introduccion

E---12--12--12-----12--15--------------------
B---------------13---------------------------
G-----------------------------12-------------
D--------------------------------------------
A--------------------------------------------
E--------------------------------------------

E---8---------5--7-6-5---------0--3-5--1-3-0------------
B------8--5-------------------------------------1-3-0---
G------------------------0------------------------------
D-------------------------------------------------------
A-------------------------------------------------------
E------------------------------------------------------- x2

A:

E------3-2-1-----0----------------------3-2-1----0--8--8-8--
B------------4----------1-----1-3-------------4-------------
G---------------------2-----2-------------------------------
D-------------------3---------------------------------------
A---3--------------------------------3----------------------
E-----------------------------------------------------------

B:

E--------3-2-1------0---------------------------------------
B--------------4------------1-----1-3---4-3-1---------------
G-------------------------2-----2---------------------------
D--5--------------------3-----------------------------------
A----3-------------------------------------------------3----
E--------------------------------------------------3-3------

se repite la A y despues la B y se continua con esta:

E--------------0-------------------------0---------
B--1-1--1---3----1-------1-1--1----3---------------
G------------------2-0-----------------------------
D--------------------------------------------------
A--------------------------------------------------
E--------------------------------------------------

E---------------0--------- E---12--12--12-----12--15---------------
B--1-1--1---3-----1------- B---------------13----------------------
G-------------------2--0-- G---------------------------12----------
D------------------------- D---------------------------------------
A------------------------- A---------------------------------------
E------------------------- E---------------------------------------

E--0--------------1-1----------5-5-5-3-1---0----------
B----1---------------------------------------1--------
G------0--1-2---------2----2-------------------2-0----
D-----------------------------------------------------
A-----------------------------------------------------
E-----------------------------------------------------

E--0--------------1-1---------1-1-1-0-----0---------
B----1--------------------------------3-----1-------
G------0--1-2--------2-----2------------------2-0---
D---------------------------------------------------
A---------------------------------------------------
E---------------------------------------------------

E-------12--12--12-----12--15----------------
B-------------------13-----------------------
G------------------------------12------------
D--------------------------------------------
A--------------------------------------------
E--------------------------------------------

E--0------------1-1--------5-5-5-3-1---0-------------
B----1-----------------------------------1-----------
G------0--1-2--------2---2-----------------2-0-------
D----------------------------------------------------
A----------------------------------------------------
E----------------------------------------------------

E--0--------------1-1---------1-1-1-0-----0----------
B----1--------------------------------3-----1--------
G------0---1-2---------2---2------------------2-0----
D----------------------------------------------------
A----------------------------------------------------
E----------------------------------------------------





Calificar esta versión:
Aviso: Este fichero es trabajo propio de su transcriptor y representa su interpretación personal de la canción. El material contenido en esta página es para exclusivo uso privado, por lo que se prohibe su reproducción o retransmisión, así como su uso para fines comerciales.
Más versiones de Mario Bros, Música De Videojuegos
Mario Bros
tablatura
Mario Bros (ver 2)
tablatura
Mario Bros (ver 3)
tablatura
Mario Bros (ver 4)
tablatura
Mario Bros
armonica
Descubre más canciones de Música De Videojuegos