Mario Bros - Primer Nivel, Música De Videojuegos (tablatura) (ver 2)

Autor: Anónimo | 41111 visualizaciones



e----------------------------------------------------0---------------
B--2-2-2---2----3------0-------------1------------1-----1h3-1--------
G--2-----2------5------0--0----------0----------0-------------2h4p2--
D--2------------4---------0--0-----2----4-2---2----------------------
A---------------5--5---------2---3----------3--------3---------------
E----------------------3--3--3---------------------------------------


-----------------------------------------3---3-3--3-----
--3-2-1----0----------------3-2-1----0---3---3-3--3-----
--------2--0----------------------2--0---------------0--
--------------2-3-4--3-4-5------------------------------
------3-------------------------3-----------------------
--------------------------------------------------------


-------------------------------------------
--3-2-1----0----------------3-2-1----------
--------2--0----------------3-2-0----------
--------------2-3-4--3-4-5-----------------
------3------------------------------------
-------------------------------------3-3-0-




-----------------------------------------3---3-3--3-----
--3-2-1----0----------------3-2-1----0---3---3-3--3-----
--------2--0----------------------2--0---------------0--
--------------2-3-4--3-4-5------------------------------
------3-------------------------3-----------------------
--------------------------------------------------------


-------------------------------------------
--3-2-1----0----------------3-2-1----------
--------2--0----------------3-2-0----------
--------------2-3-4--3-4-5-----------------
------3------------------------------------
-------------------------------------3-3-0-



------------------------ -------------------
--------------0--------- ----------------0--
--0-0-0--0-2----0------- ----0-0-0--0-2-----
--2-----------------2-0- ----2--------------
--3--------------------- ----3--------------
--------------3--------- ----------------3--



------------------------ -------------------
--------------0--------- ---2-2-2--2---3----
--0-0-0--0-2----0------- ---2------2---5----
--2-----------------2-0- ---2----------4----
--3--------------------- --------------5--5-
--------------3--------- -------------------



Final del nivel:

------------2---------------3----------------5---5-5-5---7--
----------2---2-----------3---3------------5-----5-5-5---7--
--------3---------------4----------------6---------------8--
------4---------------5----------------7-----------------9--
----4---------------5----------------7-------------------9--
--2---------------3----------------5---------------------7--


h= golpear
p= jalar





Calificar esta versión:
Aviso: Este fichero es trabajo propio de su transcriptor y representa su interpretación personal de la canción. El material contenido en esta página es para exclusivo uso privado, por lo que se prohibe su reproducción o retransmisión, así como su uso para fines comerciales.
Más versiones de Mario Bros - Primer Nivel, Música De Videojuegos
Mario Bros - Primer Nivel
tablatura
Mario Bros - Primer Nivel (ver 2)
tablatura
Mario Bros - Primer Nivel
teclado
Descubre más canciones de Música De Videojuegos