I´ll Be There For You (tema De Friends), Musica De Tv (acordes)

Autor: Anónimo | 40870 visualizaciones

abmbm7csosmdeesusfsosmg
e|-----------------------------------
B|-----------------------------------
G|----5b6--5b6--4--2--0--0--2--4--2--
D|-----------------------------------
A|-0---------------------------------
E|-----------------------------------

A                                         G
So no one told you life was gonna be this way
A                                                     C#m
Your job's a joke, you're broke, your love life's D.O.A.
G                Bm              A 
It's like you're always stuck in second gear
        G                D                    E
When it hasn't been your day, your week, your month, or even your year but

[CORO]
A       D          E
I'll be there for you [When the rain starts to pour]
A       D          E
I'll be there for you [Like I've been there before]
A       D          E                              G
I'll be there for you ['Cause you're there for me too]

A                                            G
You're still in bed at ten and work began at eight
A                                                  C#m
You burned your breakfast so far, things are going great
G           Bm                    A 
Your mother warned you there'd be days like these
        G               D                  E
But she didn't tell you when the world has brought you down to your knees that

[CORO]
A       D          E
I'll be there for you [When the rain starts to pour]
A       D          E
I'll be there for you [Like I've been there before]
A       D          E                              G
I'll be there for you ['Cause you're there for me too]

[PUENTE]
D
No one could ever know me
D
No one could ever see me
F#m
Sometime the only one who knows what its like to be me
Bm                            Bm7
Someone to face the day with, make it through all the mess with
G            D                  E              D         E        F#m
Someone I'll always laugh with, even under the worst I'm best with you

[y luego aqui se habientan un requinto medio dificil, bueno la vdd esta facil, depende de que cuanta agilidad tengan]

   F#m       Bm         Esus  E                A     D    E
e|------------------------------------------------------------------
B|2-2-2-2-2-2-2-2-2-2--0-0---0--0-----0----0-s2-------2--0--0-------
G|---------------------------------------2---------------------2--1-
D|-----------------------------------------------2-s4---------------
A|------------------------------------------------------------------
E|------------------------------------------------------------------

               F#m           Bm        Esus      E                A 
e|-------------------------------------------------------------------
B|--------------------------------------------------------------0----
G|----------------------------------------------2-2-2--1-1-1--2---2--
D|-4--2--------------------------------------------------------------
A|-------4--2--4-4-4-4-4-4-4-4------0-s4--2--2-----------------------
E|-----------------------------2-2-----------------------------------

       D       E
e|-0--------------------2--5-----------------------------------------
B|-------3--3--0--2--3-----------------------------------------------
G|----2--------------------------------------------------------------
D|-------------------------------------------------------------------
A|-------------------------------------------------------------------
E|-------------------------------------------------------------------

G                Bm              A 
It's like you're always stuck in second gear
        G                D                    E     
When it hasn't been your day, your week, your month, or even your year but

[se repite el coro como 3 veces]

http://www.marianistas.org/musica/afinador/afinador.swf
aqui una pagina para que afinen su guitarra 
Aviso: Este fichero es trabajo propio de su transcriptor y representa su interpretación personal de la canción. El material contenido en esta página es para exclusivo uso privado, por lo que se prohibe su reproducción o retransmisión, así como su uso para fines comerciales.

Comentarios en Facebook: