Caballeros Del Zodiaco, Música De Tv (tablatura)

Autor: Anónimo | 43583 visualizaciones

Bueno es la primera cancion es la de los caballeros 
del zodiaco si aun no la ubican cuando la 
toquen se van a dar cuenta espero que laos fnas les guste 
fans les guste

Pegasus fantasy
Opening original de la serie caballeros del zodiaco
(saint seiya)




1|--5---7-8---10-12---12--10-10--8-10-8-7------------------|
2|---------------------------------------------------------|
3|---------------------------------------------------------|
4|---------------------------------------------------------|
5|---------------------------------------------------------|
6|---------------------------------------------------------|

1|--5-7-8--7-8-10--8-10-12-12--12---15-16------------------|
2|---------------------------------------------------------|
3|---------------------------------------------------------|
4|---------------------------------------------------------|
5|---------------------------------------------------------|
6|---------------------------------------------------------|

|--5---7-8---10-12---12--10-10--8-10-8-7------------------|
|---------------------------------------------------------|
|---------------------------------------------------------|
|---------------------------------------------------------|
|---------------------------------------------------------|
|---------------------------------------------------------|

|--5-7-8--7-5-8--12-10--8--7-7---3---5--------------------|
|---------------------------------------------------------|
|---------------------------------------------------------|
|---------------------------------------------------------|
|---------------------------------------------------------|
|---------------------------------------------------------|

|--13--12-12--10--12--10-10--3-3---3--15-13--12--10-8-----|
|---------------------------------------------------------|
|---------------------------------------------------------|
|---------------------------------------------------------|
|---------------------------------------------------------|
|---------------------------------------------------------|

|-5-7-8--7-5-8--7-5-10---8--7--10---3-3--3--4---5--7------|
|---------------------------------------------------------|
|---------------------------------------------------------|
|---------------------------------------------------------|
|---------------------------------------------------------|
|---------------------------------------------------------|

|-8---10--12--12----10--12---10---8---7---5---5--12-------|
|---------------------------------------------------------|
|---------------------------------------------------------|
|---------------------------------------------------------|
|---------------------------------------------------------|
|---------------------------------------------------------|

|-7--8--10-10----10--15--13--12---10--12---8--10--12------|
|---------------------------------------------------------|
|---------------------------------------------------------|
|---------------------------------------------------------|
|---------------------------------------------------------|
|---------------------------------------------------------|

|-8--10--12---10--12--10--8--7--5---5—12-----------------|
|---------------------------------------------------------|
|---------------------------------------------------------|
|---------------------------------------------------------|
|---------------------------------------------------------|
|---------------------------------------------------------|

|-7--8--10-----7---8--10----13--12--10--12---12--16--17---|
|---------------------------------------------------------|
|---------------------------------------------------------|
|---------------------------------------------------------|
|---------------------------------------------------------|
|---------------------------------------------------------|

cualquier duda escribirme.
Aviso: Este fichero es trabajo propio de su transcriptor y representa su interpretación personal de la canción. El material contenido en esta página es para exclusivo uso privado, por lo que se prohibe su reproducción o retransmisión, así como su uso para fines comerciales.
Más versiones de Caballeros Del Zodiaco, Música De Tv
Caballeros Del Zodiaco
acordes
Caballeros Del Zodiaco
tablatura
Caballeros Del Zodiaco (ver 2)
tablatura
Caballeros Del Zodiaco (ver 3)
tablatura
Caballeros Del Zodiaco
teclado
Descubre más canciones de Música De Tv

Comentarios en Facebook: