El Padrino, Música De Películas (tablatura) (ver 3)

Autor: Anónimo | 22275 visualizaciones



E||----------------------------10--13--|--12--10--13--10-10s-12--10-----|
B||------------------------10----------|-----------------------------11-|
G||------------------------------------|--------------------------------|
D||------------------------------------|--------------------------------|
E||------------------------------------|--------------------------------|


-----|--------------------10--13--|--12--10--13--10--12--10------------|
--13-|--10~----L------10----------|---------------------------8s-10-L-9-|
-----|----------------------------|-------------------------------------|
-----|----------------------------|-------------------------------------|
-----|----------------------------|-------------------------------------|



---------------------6--9--|--9s-12----L---------6--9--|--9s-10----L-----|
--8~----L------6s-8--------|------------------8--------|-----------------|
---------------------------|---------------------------|-----------------|
---------------------------|---------------------------|-----------------|
---------------------------|---------------------------|-----------------|
---------------------------|---------------------------|-----------------|



---------------------|---------------------------------|
---10--11s-10-11s-13-|---L--10--11--10--L--------------|
---------------------|---------------------9g10--L--6--|
---------------------|---------------------------------|
---------------------|---------------------------------|
---------------------|---------------------------------|


---------------10--10--9--|--8~----L----12------------|---------|
--------------------------|------------------13---11--|--10~----|
--7~----L-----------------|---------------------------|---------|
--------------------------|---------------------------|---------|
--------------------------|---------------------------|---------|
--------------------------|---------------------------|---------|



-------------------------|---------------------------|
-----(10)--8s-10-10--9--|--8~----L------8s-11----8--|
-------------------------|---------------------------|
-------------------------|---------------------------|
-------------------------|---------------------------|
-------------------------|---------------------------|



--12--10--13-12-13s-15-13-15p-13-12-13-12-13p-12-10-12-9-10-6-L-9p-6|
--------------------------------------------------------------------|
--------------------------------------------------------------------|
--------------------------------------------------------------------|
--------------------------------------------------------------------|
--------------------------------------------------------------------|



-----------------------------------------------10-13-12h-13p-12p-10-|
-8-10-10h-11p-10p-8-10h-11p-8-10h-11p-8h-10-10----------------------|
--------------------------------------------------------------------|
--------------------------------------------------------------------|
--------------------------------------------------------------------|
--------------------------------------------------------------------|



-12h-13p-12p-10p-12-13s-15---12h-13p-12-13-15b-(15)b---(15)br-13-10-|
--------------------------------------------------------------------|
--------------------------------------------------------------------|
--------------------------------------------------------------------|
--------------------------------------------------------------------|
--------------------------------------------------------------------|



--13s-15--15-15~-L-15-13h-15S-13g12-L-13-12-10b-L--(10)b------------|
--------------------------------------------------------------------|
--------------------------------------------------------------------|
--------------------------------------------------------------------|
--------------------------------------------------------------------|
--------------------------------------------------------------------|



-(10)br--(10)p-8h-10-L-8b--6-5-8p-5h-6-8p-5h-6-6p-5-----------------------|
----------------------------------------------------8-6-8p-5h-6-5h-6------|
---------------------------------------------------------------------7-6s-|
--------------------------------------------------------------------------|
--------------------------------------------------------------------------|
--------------------------------------------------------------------------|



----------------------------------------------------10-13-13b------15b--|
-----------------------------8-10h-11p-10p-8h-10-10---------------------|
--7h-9h-10-7h-9h-10-7h-9h-10--------------------------------------------|
------------------------------------------------------------------------|
------------------------------------------------------------------------|
------------------------------------------------------------------------|



--15br----L--13-15-15pbr--13-15-13-15p-12-----|
-------------------------------------------14-|
----------------------------------------------|
----------------------------------------------|
----------------------------------------------|
----------------------------------------------|



-------------------------------|----------------------------------|
--15~-------15b~----L--13b~----|--13~------15br------L--11-15p-11-|
-------------------------------|----------------------------------|
-------------------------------|----------------------------------|
-------------------------------|----------------------------------|
-------------------------------|----------------------------------|



---------------13-------12-10~--L-10-9----|
--10~----10-11----10-11----------------11-|
------------------------------------------|
------------------------------------------|
------------------------------------------|
------------------------------------------|



---------------------------8-----------|
--10-8-10-8----8-8~--6-8b----8pbr--6---|
------------10-----------------------7-|
---------------------------------------|
---------------------------------------|
---------------------------------------|



---------9--------9------------------------13-13----|
--10s-11---10s-11---10s-11-11s-13-15-13-15-------15-|
----------------------------------------------------|
----------------------------------------------------|
----------------------------------------------------|
----------------------------------------------------|



--17-15h-17p-15p-13----17-15h-17p-15p-13----17-15h-17p-15p-13-|
--------------------15-------------------15-------------------|
--------------------------------------------------------------|
--------------------------------------------------------------|
--------------------------------------------------------------|
--------------------------------------------------------------|



-----17-15h-17p-15p-13----17-15h-17p-15p-13-----------|
--15-------------------15-------------------15---xg18-|
------------------------------------------------------|
------------------------------------------------------|
------------------------------------------------------|
------------------------------------------------------|



----18b--L----18-17-18---17h-18p-17p-15-L-17-15-13-12-15-13-12-|
---------------------------------------------------------------|
---------------------------------------------------------------|
---------------------------------------------------------------|
---------------------------------------------------------------|
---------------------------------------------------------------|



--15-13-12-15-13-12-10-13-12h-13p-12p-10-12-10p-9h-10-10p-9-10-9-
-----------------------------------------------------------------
-----------------------------------------------------------------
-----------------------------------------------------------------
-----------------------------------------------------------------
-----------------------------------------------------------------



-------------------------|-----------------------------------20-|
-11h-14p-11S-10----11----|-------------------------20b~----L----|
----------------12----12-|--12b--L-12~---(12)------------------|
-------------------------|--------------------------------------|
-------------------------|--------------------------------------|
-------------------------|--------------------------------------|



---------------------------20--------------------|
--20pbr--18-15-20--18-20b-----20pbr--18-20-17-20-|
-------------------------------------------------|
-------------------------------------------------|
-------------------------------------------------|
-------------------------------------------------|

---------------------------------------------------------------------|
--18-20-17-18-15-17-13-15-13-15p-13S-11--L-13-11-13p-11S-10--L-8-10~-|
---------------------------------------------------------------------|
---------------------------------------------------------------------|
---------------------------------------------------------------------|
---------------------------------------------------------------------|



--------------------------------------------------|
--L----8-10p-8S-6-L-8-----------11-L-11p-10S-8-10-|
----------------------10-9-10-9-------------------|
--------------------------------------------------|
--------------------------------------------------|
--------------------------------------------------|



------------------------------------------------------------|
------------------------------------------------------------|
--12-10-9-12-10-9-10p-9p-7----9p-7p-6---7p-6------6---------|
---------------------------11---------8------8p-7---8p-7p-5-|
------------------------------------------------------------|
------------------------------------------------------------|



----------------------------------------|
----------------------------------------|
-----------6-6---7-6--------------6~----|
--8--7--8------8-----8-7--7b--7~------7-|
----------------------------------------|
----------------------------------------|



---------------------------|------------------------|
---------------------------|------------------------|
--7~------10--9--7--10--7--|--9--7------------------|
---------------------------|--------8~----8s-10~-L--|
---------------------------|------------------------|
---------------------------|------------------------|



---------------------------------------------------------------|
---------------------------------------------------------------|
-------------9-9-9-9-9-9S-10-10-10-10-10-10S-12-12-12-12-12-12-|
--10s-12~-L----------------------------------------------------|
---------------------------------------------------------------|
---------------------------------------------------------------|



--------------------|
-10-10-10-10-10-10S-|
--------------------|
--------------------|
--------------------|
--------------------|



----------------------------------------------------------|
--11-11-11-11-11-11S-10-10-10-10-10-10S-13-13-13-13-13-13S|
----------------------------------------------------------|
----------------------------------------------------------|
----------------------------------------------------------|
----------------------------------------------------------|



---------------------------------------------------------|
-11-11-11-11-11-11S-10-10-10-10-10-10S-11-11-11-11-11-11-|
---------------------------------------------------------|
---------------------------------------------------------|
---------------------------------------------------------|
---------------------------------------------------------|



-----------------------------------------------------------|
--14-14-14-14-14-14S-15-15-15-15-15-15S-17-17-17-17-17-17S-|
-----------------------------------------------------------|
-----------------------------------------------------------|
-----------------------------------------------------------|
-----------------------------------------------------------|



------------------------------------------------------------------|
--18-18-18-18-18-18S-17-17-17-17-17-17S-14-14-14-14-14-14S---15~--|
------------------------------------------------------------------|
------------------------------------------------------------------|
------------------------------------------------------------------|
------------------------------------------------------------------|



-------------------||
--15S--------------||
-------------------||
-------------------||
-------------------||
-------------------||





Calificar esta versión:
Aviso: Este fichero es trabajo propio de su transcriptor y representa su interpretación personal de la canción. El material contenido en esta página es para exclusivo uso privado, por lo que se prohibe su reproducción o retransmisión, así como su uso para fines comerciales.
Más versiones de El Padrino, Música De Películas
El Padrino
tablatura
El Padrino (ver 2)
tablatura
El Padrino (ver 3)
tablatura
El Padrino
bajo
El Padrino
armonica
El Padrino (ver 2)
armonica
Descubre más canciones de Música De Películas