Alabare, Música Católica (tablatura)

Autor: Anónimo | 26496 visualizaciones

miren a ver si lo pueden mejorar

coro x2

   ALABARE    ALABARE
e|-------1----1-1-1-1---
B|-1-3-1----------------
G|----------------------
D|----------------------
A|----------------------
E|----------------------

   ALABARE   ALABARE
e|-1-3-1-5---5-5-5-5----
B|----------------------
G|----------------------
D|----------------------
A|----------------------
E|----------------------

     ALABARE A MI SEÑOR
e|-5-3--3-5-3--1-0-1--5-1----
B|---------------------------
G|---------------------------
D|---------------------------
A|---------------------------
E|---------------------------

verso I

Juan vio el número de los redimidos
e|-1-1-1-1-1--1-1-1-1-1-1---
B|--------------------------
G|--------------------------
D|--------------------------
A|--------------------------
E|--------------------------

y todos alababan al Señor
e|---1-1-1-1-3-1-0-1-3---
B|-1---------------------
G|-----------------------
D|-----------------------
A|-----------------------
E|-----------------------

unos cantaban otros oraban
e|-3-3-3-0----3-3-3-0-----
B|---------1----------1---
G|------------------------
D|------------------------
A|------------------------
E|------------------------

   y todos alababan al Señor
e|---3-3--3-3-5-3--1-0-1--5-1---
B|-1----------------------------
G|------------------------------
D|------------------------------
A|------------------------------
E|------------------------------

coro x2

verso II

Todos unidos alegres cantamos
e|-1-1-1-1-1----1-1-1-1-1---
B|------------1-------------
G|--------------------------
D|--------------------------
A|--------------------------
E|--------------------------

Glorias y alabanzas al Señor
e|---1-1-1-1-3-1-0-1-3---
B|-----------------------
G|-----------------------
D|-----------------------
A|-----------------------
E|-----------------------

Gloria al Padre Gloria al hijo
e|--3-3-0-------3-3-0-----
B|--------1-----------1---
G|------------------------
D|------------------------
A|------------------------
E|------------------------

Y Gloria al Espíritu de amor
e|---3-3--3-5-3--1-0-1--5-1---
B|-1--------------------------
G|----------------------------
D|----------------------------
A|----------------------------
E|----------------------------

coro x2

espero que les sirva.
mi correo: juanda0612@gmail.com
Calificar esta versión:
Aviso: Este fichero es trabajo propio de su transcriptor y representa su interpretación personal de la canción. El material contenido en esta página es para exclusivo uso privado, por lo que se prohibe su reproducción o retransmisión, así como su uso para fines comerciales.
Más versiones de Alabare, Música Católica
Alabare
acordes
Alabare
tablatura
Descubre más canciones de Música Católica