Ace Of Spades, Motörhead (bajo)

Autor: CarlosQV | 42000 visualizaciones



MAIN RIFF 4X
G|--------------------------|
D|--------------------------|
A|--6--6--6-6-6-6--6--6--4--|
E|--------------------------|

RIFF 2 4X
G|--------------------------|
D|---------------8-7-6------|
A|--6--6--6--6-6------------|
E|--------------------------|

VERSE RIFF   
G|--------------------------|--------------------------|
D|--------------------------|--------------------------|
A|--9-----------------------|--9-----------------------|
E|--------------------------|--------------------------|
    IF YOU LIKE TO GAMBLE 	 I TELL YOU I'M YOUR MAN
  
G|--------------------------|--------------------------|
D|--------------------------|--------------------------|
A|--9-----------------------|--9-----------------------|
E|--------------------------|--------------------------|
    YOU WIN SOME LOSE SOME     IT'S ALL THE SAME TO ME

MAIN RIFF 4X
G|--------------------------|
D|--------------------------|
A|--6--6--6-6-6-6--6--6--4--|
E|--------------------------|

VERSE RIFF 2    
G|--------------------------|--------------------------|
D|--------------------------|--------------------------|
A|--4-----------------------|--2-----------------------|
E|--------------------------|--------------------------|
    THE PLEASURE IS TO PLAY    MAKES NO DIFFERENCE WHAT YOU SAY

MAIN RIFF 2X
G|--------------------------|
D|--------------------------|
A|--6--6--6-6-6-6--6--6--4--|
E|--------------------------|

VERSE RIFF 2      
G|--------------------------|--------------------------|
D|--------------------------|--------------------------|
A|--4-----------------------|--2-----------------------|
E|--------------------------|--------------------------|
    I DON' SHARE YOUR GREED    THE ONLY CARD I NEED IS

CHORUS
RIFF 2 4X
G|--------------------------|
D|---------------8-7-6------|
A|--6--6--6--6-6------------|
E|--------------------------|
  THE ACE OF SPADES

VERSE RIFF
G|--------------------------|--------------------------|
D|--------------------------|--------------------------|
A|--9-----------------------|--9-----------------------|
E|--------------------------|--------------------------|
    PLAYIN FOR THE HIGH ONE    DANCING WITH THE DEVIL
   
G|--------------------------|--------------------------|
D|--------------------------|--------------------------|
A|--9-----------------------|-9------------------------|
E|--------------------------|--------------------------|
    GOING WITH THE FLOW       IT'S ALL THE SAME TO ME

MAIN RIFF 4X
G|--------------------------|
D|--------------------------|
A|--6--6--6-6-6-6--6--6--4--|
E|--------------------------|

VERSE RIFF 2
G|--------------------------|--------------------------|
D|--------------------------|--------------------------|
A|--4-----------------------|--2-----------------------|
E|--------------------------|--------------------------|
    SEVEN OR ELEVEN            SNAKE EYES WATCING YOU  

MAIN RIFF 2X
G|--------------------------|
D|--------------------------|
A|--6--6--6-6-6-6--6--6--4--|
E|--------------------------|
      
VERSE RIFF 2
G|--------------------------|--------------------------|
D|--------------------------|--------------------------|
A|--4-----------------------|--2-----------------------|
E|--------------------------|--------------------------|
    DOUBLE UP OR QUIT          DOUBLE STAKE OR SPLIT

CHORUS
RIFF 2 4X
G|--------------------------|
D|---------------8-7-6------|
A|--6--6--6--6-6------------|
E|--------------------------|
  THE ACE OF SPADES

BRIDGE 
G|--------------------------|--------------------------|
D|--------------------------|--------------------------|
A|--6--------------------4--|--6-----------------------|
E|--------------------------|--------------------------|
   YOU KNOW I'M BORN TO LOSE  AND GAMBLING'S FOR FOOLS
  
G|--------------------------|   |-------------------------|
D|--------------------------|   |-------------------------|
A|--------------------------|   |-6--6--6--6--6--6--6--6--|
E|--------------------------|   |-------------------------|
  BUT THAT?S THE WAY I LIKE IT BABY I DON'T WANNA LIVE FOREVER
     
G|--------------------------|--------------------------|
D|--------------------------|--------------------------|
A|--4--------------------4--|--------------6--4--2--1--|
E|--------------------------|--------------------------|

	
 
+ to speed up (numpad)
- to slow down (numpad)
Esc to stop
Help
	
Ace Of Spades bass tab by Motorhead, www.Ultimate-Guitar.Com
UG app 	View Ace Of Spades tab on your iPhone, iPod Touch or Android
	Listen to Ace Of Spades
	Add to favourites
Click here for mobile guitar lessons on your iPad, iPhone, or iPod

ACE OF SPADES - MOTORHEAD

STANDARD TUNNING: EADG

This is a real fun song to play with your band!

MAIN RIFF 4X
G|--------------------------|
D|--------------------------|
A|--6--6--6-6-6-6--6--6--4--|
E|--------------------------|

RIFF 2 4X
G|--------------------------|
D|---------------8-7-6------|
A|--6--6--6--6-6------------|
E|--------------------------|

VERSE RIFF   
G|--------------------------|--------------------------|
D|--------------------------|--------------------------|
A|--9-----------------------|--9-----------------------|
E|--------------------------|--------------------------|
    IF YOU LIKE TO GAMBLE 	 I TELL YOU I'M YOUR MAN
  
G|--------------------------|--------------------------|
D|--------------------------|--------------------------|
A|--9-----------------------|--9-----------------------|
E|--------------------------|--------------------------|
    YOU WIN SOME LOSE SOME     IT'S ALL THE SAME TO ME

MAIN RIFF 4X
G|--------------------------|
D|--------------------------|
A|--6--6--6-6-6-6--6--6--4--|
E|--------------------------|

VERSE RIFF 2    
G|--------------------------|--------------------------|
D|--------------------------|--------------------------|
A|--4-----------------------|--2-----------------------|
E|--------------------------|--------------------------|
    THE PLEASURE IS TO PLAY    MAKES NO DIFFERENCE WHAT YOU SAY

MAIN RIFF 2X
G|--------------------------|
D|--------------------------|
A|--6--6--6-6-6-6--6--6--4--|
E|--------------------------|

VERSE RIFF 2      
G|--------------------------|--------------------------|
D|--------------------------|--------------------------|
A|--4-----------------------|--2-----------------------|
E|--------------------------|--------------------------|
    I DON' SHARE YOUR GREED    THE ONLY CARD I NEED IS

CHORUS
RIFF 2 4X
G|--------------------------|
D|---------------8-7-6------|
A|--6--6--6--6-6------------|
E|--------------------------|
  THE ACE OF SPADES

VERSE RIFF
G|--------------------------|--------------------------|
D|--------------------------|--------------------------|
A|--9-----------------------|--9-----------------------|
E|--------------------------|--------------------------|
    PLAYIN FOR THE HIGH ONE    DANCING WITH THE DEVIL
   
G|--------------------------|--------------------------|
D|--------------------------|--------------------------|
A|--9-----------------------|-9------------------------|
E|--------------------------|--------------------------|
    GOING WITH THE FLOW       IT'S ALL THE SAME TO ME

MAIN RIFF 4X
G|--------------------------|
D|--------------------------|
A|--6--6--6-6-6-6--6--6--4--|
E|--------------------------|

VERSE RIFF 2
G|--------------------------|--------------------------|
D|--------------------------|--------------------------|
A|--4-----------------------|--2-----------------------|
E|--------------------------|--------------------------|
    SEVEN OR ELEVEN            SNAKE EYES WATCING YOU  

MAIN RIFF 2X
G|--------------------------|
D|--------------------------|
A|--6--6--6-6-6-6--6--6--4--|
E|--------------------------|
      
VERSE RIFF 2
G|--------------------------|--------------------------|
D|--------------------------|--------------------------|
A|--4-----------------------|--2-----------------------|
E|--------------------------|--------------------------|
    DOUBLE UP OR QUIT          DOUBLE STAKE OR SPLIT

CHORUS
RIFF 2 4X
G|--------------------------|
D|---------------8-7-6------|
A|--6--6--6--6-6------------|
E|--------------------------|
  THE ACE OF SPADES

BRIDGE 
G|--------------------------|--------------------------|
D|--------------------------|--------------------------|
A|--6--------------------4--|--6-----------------------|
E|--------------------------|--------------------------|
   YOU KNOW I'M BORN TO LOSE  AND GAMBLING'S FOR FOOLS
  
G|--------------------------|   |-------------------------|
D|--------------------------|   |-------------------------|
A|--------------------------|   |-6--6--6--6--6--6--6--6--|
E|--------------------------|   |-------------------------|
  BUT THAT?S THE WAY I LIKE IT BABY I DON'T WANNA LIVE FOREVER
     
G|--------------------------|--------------------------|
D|--------------------------|--------------------------|
A|--4--------------------4--|--------------6--4--2--1--|
E|--------------------------|--------------------------|

AND DON'T FORGET THE JOKER!

Aqui Viene El Solo De Guitarra


RIFF 2 4X
G|--------------------------|
D|---------------8-7-6------|
A|--6--6--6--6-6------------|
E|--------------------------|

VERSE RIFF  
G|--------------------------|--------------------------|
D|--------------------------|--------------------------|
A|--9-----------------------|--9-----------------------|
E|--------------------------|--------------------------|
    PUSHING UP THE ANTE       I KNOW YOU WANNA SEE ME
     
G|--------------------------|--------------------------|
D|--------------------------|--------------------------|
A|--9-----------------------|--9-----------------------|
E|--------------------------|--------------------------|
    READ 'EM AND WEEP          THE DEAD MAN'S HAND AGAIN

MAIN RIFF 4X
G|--------------------------|
D|--------------------------|
A|--6--6--6-6-6-6--6--6--4--|
E|--------------------------|

VERSE RIFF 2
G|--------------------------|--------------------------|
D|--------------------------|--------------------------|
A|--4-----------------------|--2-----------------------|
E|--------------------------|--------------------------|
    I SEE IT IN YOUR EYES      TAKE ONE LOOK AND DIE

MAIN RIFF 2X
G|--------------------------|
D|--------------------------|
A|--6--6--6-6-6-6--6--6--4--|
E|--------------------------|

VERSE RIFF 2
G|--------------------------|--------------------------|
D|--------------------------|--------------------------|
A|--4-----------------------|--2-----------------------|
E|--------------------------|--------------------------|
    THE ONLY THING YOU SEE     YOU KNOW IT'S GUNNA BE

CHORUS
RIFF 2 2X
G|--------------------------|
D|---------------8-7-6------|
A|--6--6--6--6-6------------|
E|--------------------------| 
THE ACE OF SPADES

OUTRO 
G|--------------------------|
D|--------------------------|
A|--6--6--6-6-6-6--6--6--6--| 
E|--------------------------|

G|--------------------------|
D|--------------------------|
A|--6--6--6-6-6-6--6--6--6--| 
E|--------------------------|

G|--------------------------|
D|--------------------------|
A|--6--6--6-6-6-6--6--6--6--| 
E|--------------------------|

G|--------------------------|
D|--------------------------|
A|--6--6--6-6-6-6--6--6--6--| 
E|--------------------------| 

G|--------------------------|--------------------------|
D|--------------------------|--------------------------|
A|--4-----------------------|--2-----------------------|
E|--------------------------|--------------------------|

G|--------------------------|--------------------------|
D|--------------------------|--------------------------|
A|--4-----------------------|--2-----------------------|
E|--------------------------|--------------------------|

G|--------------------------|--------------------------|
D|--------------------------|--------------------------|
A|--6-----4-----6-----------|--6-----4-----6-----------|
E|--------------------------|--------------------------|





Comentarios del colaborador: http://www.ultimate-guitar.com/tabs/m/motorhead/ace_of_spades_btab.htm

Calificar esta versión:
Aviso: Este fichero es trabajo propio de su transcriptor y representa su interpretación personal de la canción. El material contenido en esta página es para exclusivo uso privado, por lo que se prohibe su reproducción o retransmisión, así como su uso para fines comerciales.
Más versiones de Ace Of Spades, Motörhead
Ace Of Spades
tablatura
Ace Of Spades
bajo
Descubre más canciones de Motörhead