Olvidame, Motel (tablatura)

Autor: christian3.2 | 26838 visualizaciones



INTRO
      F                               A#
E*-------------------------------------------------------------*
B*-------------------------------------------------------------*
G*----9/10-10-10--9---10-10-10-10--9---2/3-3-3-2---3-3-3-3-2---*
D*-------------------------------------------------------------*
A*----7/8--8--8---7----8--8--8--8--7---0/1-1-1-0---1-1-1-1-0---*
E*-------------------------------------------------------------*
      F                               A#
E*-------------------------------------------------------------*
B*-------------------------------------------------------------*
G*----9/10-10-10--9---10-10-10-10--9---2/3-3-3-2---3-----------*
D*-------------------------------------------------------------*
A*----7/8--8--8---7----8--8--8--8--7---0/1-1-1-0---1-----------*
E*-------------------------------------------------------------*
VERSO I:

F                     Am
   La noche se disuelve
F                Am
   Recobra su color
F                    Am
   Las sombras desvanecerán
F                   Am
   En sueño y en sudor

PRECORO:

      Dm         A#             F
Y el sol ya va saliendo a la ciudad
(con la segunda guitarra se hace esto)
E*---------5----------------1-------*
B*-----6-----6----------1-----1-----*
G*---7---7-----7------2---2-----2---*
D*-7----------------3---------------*
A*----------------------------------*
E*----------------------------------*
     Dm          A#         C
Los autos se deslizan y se van
(aki igual entra la segunda guitarra)
E*---------5----------------1-------*
B*-----6-----6----------1-----1-----*
G*---7---7-----7------2---2-----2---*
D*-7----------------3---------------*
A*----------------------------------*
E*----------------------------------*

CORO (parte I):

         F         A#
Y POR FAVOR OLVÍDAME
           F               A#
IGUAL QUE HOY, IGUAL QUE AYER
       F
OLVÍDAME

F                    Am
   Volvemos a encontrarnos
F                  Am
   En un gran almacén
F                     Am
   La noche es el contrato que
F                Am
   Venimos a romper

      Dm        A#           F
Y el DJ nos lastima una vez más
E*---------5----------------1-------*
B*-----6-----6----------1-----1-----*
G*---7---7-----7------2---2-----2---*
D*-7----------------3---------------*
A*----------------------------------*
E*----------------------------------*

      Dm         A#             C
Y el maratón suicida que nos comerá
E*---------5----------------1-------*
B*-----6-----6----------1-----1-----*
G*---7---7-----7------2---2-----2---*
D*-7----------------3---------------*
A*----------------------------------*
E*----------------------------------*

CORO (parte I):

         F         A#
Y POR FAVOR OLVÍDAME
           F               A#
IGUAL QUE HOY, IGUAL QUE AYER


(parte II)

         F        A#
Y POR FAVOR OLVÍDAME
           Am           A#
IGUAL QUE YO TE OLVIDARÉ
        F
OLVÍDAME

Aquí es cuando se callan y la eléctrica
hace algunos arpegios y la acústica hace
este par de acordes:

F  A#
F  A#

Acompañamiento del Solo

    F                A#
e*----------------------------------------*
B*----------------------------------------*
G*------9/10--9---5------9h8-9-7-9/10-----*
D*----------------------------------------*
A*----------------------------------------*
E*----------------------------------------*
    F                A#
e*----------------------------------------*
B*----------------------------------------*
G*------9/10--9---5------9h8-9/10---------*
D*----------------------------------------*
A*----------------------------------------*
E*----------------------------------------*


CORO (parte I):

         F         A#
Y POR FAVOR OLVÍDAME
           F               A#
IGUAL QUE HOY, IGUAL QUE AYER

(parte II)

         F        A#
Y POR FAVOR OLVÍDAME
           Am           A#
IGUAL QUE YO TE OLVIDARÉ
        F
OLVÍDAME





Calificar esta versión:
Aviso: Este fichero es trabajo propio de su transcriptor y representa su interpretación personal de la canción. El material contenido en esta página es para exclusivo uso privado, por lo que se prohibe su reproducción o retransmisión, así como su uso para fines comerciales.
Más versiones de Olvidame, Motel
Olvidame
acordes
Olvidame
tablatura
Olvídame
bajo
Descubre más canciones de Motel