Lejos Estamos Mejor, Motel (tablatura) (ver 2)

Autor: Anónimo | 18376 visualizaciones



xD ESTABA MAL EL SOLO..QUE MAL PARA LOS COPIONES XD
POR CIERTO AGREGUENME HASTA DICIEMBRE ES QUE YA NO TENGO
COMPU (SE QUEMO EL DISCO DURO XD)

Dedicada a ti...mi inspiración...Volveré lo prometo


Intro:
A5, A, Asus4, A...Em, Eadd
D, Dsus2, D
A5, A, Asus4, A


A               Em   Eadd
 Hoy rompo en llanto
     D           Dsus2        A5 A Asus4 A
pues sé que todo está decidido
A          Em    Eadd
 te quiero tanto
  D            Dsus2          A5 A Asus4 A
pero no es suficiente sentirlo


F#m                  E                 D     Dsus2
 Hemos intentado seguir por seguir sin reconocer
C#m                        F#m
 que ya no hay más por hacer
                      E
y hemos aceptado sufrir por sufrir
      D       Dsus2
sin querer creer...
   E                   A
querida después de romper_


                         Em  Eadd
_Aunque no soporte perderte
D        Dsus2          A      E
 es inevitable nuestra separación
A                          Em      Em7
 y este no es momento para entender
D                 Dsus2         A       E     A5_
 sólo hay que aceptarlo, pues lejos estamos mejor


_A, Asus4, A...Em, Eadd
 D, Dsus2, D
 A5, A, Asus4, A


A            Em  Eadd
 De aquel amor
D              Dsus2        A5 A Asus4 A
 tendremos solamente el recuerdo
A           Em  Eadd
 Luna sin sol
D                    Dsus2      A
 jardín que se ha quedado desierto


F#m                   E                  D  Dsus2
 En ningún momento dejé de sentir, de sentirte a ti
C#m               F#m
 podremos sobrevivir
                      E
este rompimiento se debe cumplir
            D        Dsus2
porque hay que seguir
     E                  A_
querida después de partir


                         Em  Eadd
_Aunque no soporte perderte
D        Dsus2         A      E
 es inevitable nuestra separación
A                          Em      Em7
 y este no es momento para entender
D                 Dsus2         A       E
 sólo hay que aceptarlo, pues lejos estamos mejooo_

   _oooooooooooooooooooor
E-|-9-------9-------9---------7-----7-----7----|-
B-|---10------10--10--10--------9-----9-9---9--|-
G-|------11-------------11--------9-----------9|-

E-|-10------10-------10-------9-----9----------|-
B-|---10-------10-10---10------10-----12-12-10s|-
G-|------11---------------11------11---------xD|-

E-|-9-------9-------9---------7-----7-----7----|-
B-|---10------10--10--10--------9-----9-9---9--|-
G-|------11-------------11--------9-----------9|-

E-|-10------10------10------10-----10-12-10s---|-
B-|---10-------10-10---10------10--------------|-
G-|------11--------------11------10------------|-


A                          Em  Eadd
 Y aunque no soporte perderte
D        Dsus2         A      E
 es inevitable nuestra separación
A                          Em      Em7
 y este no es momento para entender
D                Dsus2          A       E     A__
 sólo hay que aceptarlo, pues lejos estamos mejooo_

   _oooooooooooooor           __E
E-|---------------9-9--------------------9-9-----|-
B-|-10-10-12-12-10---10-10-10-9-9-12-12-9---9-9-9|-
G-|----------------------------------------------|-

           D    Dsus2   A         X     A
        mmm...          lejos estamos mejor.
E-|-----9-9---10-10-10--10--------------10-------|-
B-|-7-7-----7-----------10--------------10-------|-
G-|---------------------11--------------10-------|-
                        [Rasgueado]

Acordes    654321

C#m        446654
D          000232
Dsus2      000230
E          022100
Em         022000
Em7        022030
Eadd       022002
F#m        244222
A          002220
A5         002200
Asus4      002230

[Dudas,quejas,sugerencias & aclaraciones a mi correo]





Calificar esta versión:
Aviso: Este fichero es trabajo propio de su transcriptor y representa su interpretación personal de la canción. El material contenido en esta página es para exclusivo uso privado, por lo que se prohibe su reproducción o retransmisión, así como su uso para fines comerciales.
Más versiones de Lejos Estamos Mejor, Motel
Lejos Estamos Mejor
acordes
Lejos Estamos Mejor (ver 2)
acordes
Lejos Estamos Mejor (ver 3)
acordes
Lejos Estamos Mejor (ver 4)
acordes
Lejos Estamos Mejor
tablatura
Lejos Estamos Mejor (ver 2)
tablatura
Descubre más canciones de Motel