Dos Palabras, Motel (tablatura)

Autor: Anónimo | 24272 visualizaciones



bueno, este es un arreglo de guitarra que hice para esta cancion, la
original tiene partes tanto de bajo como de guitarra, hay que escucharla,
espero y les guste.
muy buena rola!


INTRO/VERSO

e|--------------------------------------------------------------------|
B|--------------------------------------------------------------------|
G|--------------------------------------------------------------------|
D|-2-2-2-2-2-2-2-2/4-4-4-4-4-4-4-4/5-5-5-5-5-5-5-5/0-0-0-0-0-0-0-0/---|
A|-3-3-3-3-3-3-3-3/5-5-5-5-5-5-5-5/7-7-7-7-7-7-7-7/2-2-2-2-2-2-2-2/---|
E|--------------------------------------------------------------------|



CORO/VERSO

e|--------------------------------------------------------------------|
B|-5--------------7---------------8----------------3------------------|
G|-5--------------7---------------9----------------4------------------|
D|-5--------------7---------------9----------------4------------------|
A|-3--------------5---------------7----------------2------------------|
E|--------------------------------------------------------------------|


FINAL

e|--------------------------------------------------------------------|
B|--------------------------------------------------------------------|
G|--------------------------------------------------------------------|
D|-2-2-2-2-2-2-2-2/4-4-4-4-4-4-4-4/0-0-0-0-0-0-0-0/5-5-5-5-5-5-5-5----|
A|-3-3-3-3-3-3-3-3/5-5-5-5-5-5-5-5/2-2-2-2-2-2-2-2/7-7-7-7-7-7-7-7----|
E|--------------------------------------------------------------------|

e|--------------------------------------------------------------------|
B|--------------------------------------------------------------------|
G|--------------------------------------------------------------------|
D|-2-2-2-2-2-2-2-2/4-4-4-4-4-4-4-4/0-0-0-0-0-0-0-0/5------------------|
A|-3-3-3-3-3-3-3-3/5-5-5-5-5-5-5-5/2-2-2-2-2-2-2-2/7------------------|
E|--------------------------------------------------------------------|


bueno, quejas, dudas, correciones o lo que sea ya saben que hacer.

www.myspace.com/blindkr





Calificar esta versión:
Aviso: Este fichero es trabajo propio de su transcriptor y representa su interpretación personal de la canción. El material contenido en esta página es para exclusivo uso privado, por lo que se prohibe su reproducción o retransmisión, así como su uso para fines comerciales.
Más versiones de Dos Palabras, Motel
Dos Palabras
acordes
Dos Palabras
tablatura
Descubre más canciones de Motel