Abriendo Paso, Motel (tablatura)

Autor: Anónimo | 16636 visualizaciones



Hola como estan aquí con los arreglos de esta cancion que hace billi
Y Rodrigo un saludo a los strokes berry zlach jerry jaque checheli
Disco y martin jjaj sale esta cancion esta de dicada a todas las
Personas que les gusta el romanticismo buena para la serenata
Jajajja sale pues un saludo a la angostura Sinaloa mexico
Donde el rock no existe we jajaja .

Nota.-we el intro puse D”que quiere decir que pones
La posision de do en los trates indicados si no me
Entendiste pues entoces D” tocalo como re mayor
Ok el D” es un acorde raro ok .-


INTRO:   C - D”

   A B A A   AAAA
E------------------------------------------|
A-3-3-3-3---5-5-5-5------------------------|
D-2-2-2-2---4-4-4-4------------------------|
G-0-0-0-0---0-0-0-0------------------------|
B-1-1-1-1---3-3-3-3---3/10-10-10-10-10-10--|
E-0-0-0-0---0-0-0-0---3/10-10-10-10-10-10--|

A.-ragueo hacia abajo
B.-ragueo hacia arriba

Ojo wey los acordes del coro son los de abajo pero
Te toca a ti darle el tiempo necesario ok y abajo
Te dejo los arreglo del coro.

CORO: C-D”-Em-D”-C-D”-Em-C-D”-Em-D”-C-D-C

RIFF A

G-11h12-----11-11h12---------------11-12-----11-12-----11-12------|
B----------------------(X6)---------------------------------------|
E-------10-----------10-------------------15-------14----------12-|

Después del coro     C-Am-Bm-C

B-12---5b---12---3b---5-3-5-7-8----5b---3-3-3-3-3-|
E---------------------------------------3-3-3-2-0-|

Ojo después sigue pre-coro o verso
En esta parte puedes hacer el adorno de arriba
Es obcional

Depuse sigue el CORO.-(los acordes estan arriba
Y el adorno ok.)

SOLO:   C - D - Em - D


B-5-5-5-5---7-7-7-7-----8-8-8-8------10-10-10-10-|
E------------------------------------------------|

B-7-7-7-7----8-8-8-8-----10-10-10-10----12-12-12-12-|
E---------------------------------------------------|

B-8-8-8-8----10-10-10-10-----12-12-12-12----13-13-13-13-|
E-------------------------------------------------------|

B-12-----12-----15-13-12-10-8b------|
E-----15-----15---------------------|

PRE-CORO(esta arriba ok)

CORO:  (ojo haces el coro y te quedas en do y
Haces el punteo de abajo ok o bien hace el riff a
Y luego lo de abajo que es la misma ok y vuelves
Arrepetir el coro escucha esa parte y veras que es
Como te digo ok)

RIFF A y luego G---11-(x4)---12-(x4)-------------------------|
               B---------------------------10-(x4)---12-(x4)-|
               E---------------------------------------------|


FINAL:   C - Am - G

B---12---5b----12---5-3-1-0-----3-|
E-------------------------------3-|

BUENO A QUI TE DEJO LOS ACORDES Y EL ORDEN WE

INTRO: C - D

CORO: C-D-Em-D-C-D-Em-C-D-Em-D-C-D-C

PUENTE: C-Am-Bm-C

PRE-CORO: C-Am-Bm-C-D   (X2)

CORO

SOLO: C-D-Em-D

PRE-CORO

CORO (X2)

FINAL: C-Am-G


Bueno eso es todo si tienes alguna duda o sugerencia
Ojo no andes poniendo calificaron mala solo por que no
Le entiendes si no entiendes pregunte wey por que esta
Al 100% la tablatura ok si tienes duda o comentario
O lo que sea mi correo es KOBE_8_7@HOTMAIL.COM
ATTE.-MARTIN ARMENTA BELTRAN GUITARRO DE
LOS STROKES Y UN SALUDO A LA CHECHELI  YA
NO ME AGAS ENOJAR HEEEEEEEEEEE   Y AL
SLACH APRENDETE LOS SOLOS CABRON JAJAJAJA.





Calificar esta versión:
Aviso: Este fichero es trabajo propio de su transcriptor y representa su interpretación personal de la canción. El material contenido en esta página es para exclusivo uso privado, por lo que se prohibe su reproducción o retransmisión, así como su uso para fines comerciales.
Más versiones de Abriendo Paso, Motel
Abriendo Paso
acordes
Abriendo Paso
tablatura
Descubre más canciones de Motel