Welcome To San Pedro, Montuca Sound System (tablatura)

Autor: elRiff | 14433 visualizaciones

Una gran canción de una tremenda banda hondureña... 
La letra está más abajito


Estos son los Acordes que se repiten en toda la canción:  
Do#m, Sol#m, Fa#m, Sol#m


   C#m 
E||-----4-----4-----4-----4--|
B||--x--5--x--5--x--5--x--5--|
G||--x--6--x--6--x--6--x--6--|
D||--x--6--x--6--x--6--x--6--|
A||--x--4--x--4--x--4--x--4--|
E||--------------------------|

G#m                        F#m 
-----4-----4-----4-----4--|-----2-----2-----2-----2--|
--x--4--x--4--x--4--x--4--|--x--2--x--2--x--2--x--2--|
--x--4--x--4--x--4--x--4--|--x--2--x--2--x--2--x--2--|
--x--6--x--6--x--6--x--6--|--x--4--x--4--x--4--x--4--|
--x--6--x--6--x--6--x--6--|--x--4--x--4--x--4--x--4--|
-----4-----4-----4-----4--|-----2-----2-----2-----2--|

G#m         
-----4-----4-----4-----4--||
--x--4--x--4--x--4--x--4--||
--x--4--x--4--x--4--x--4--||
--x--6--x--6--x--6--x--6--||
--x--6--x--6--x--6--x--6--||
-----4-----4-----4-----4--||


Está es la parte del intro de los intrumentos de viento:

   C#m
E||---------------------------|
B||-------------5-------------|
G||----------4-----6--4--4-6--|
D||-----4--6------------------|
A||---------------------------|
E||---------------------------|

G#m                         F#m
---------------------------|---------------------------|
-------------5-------------|-------------5-------------|
----------4-----6----------|----------4-----6--4--4-6--|
-----4--6----------4--4-6--|-----4--6------------------|
---------------------------|---------------------------|
---------------------------|---------------------------|

G#m        
---------------------------||
-------------5-----7--7----||
----------4-----6-------6--||  
-----4--6------------------||   X2
---------------------------||
---------------------------||


Letra:


                 Do#m       Sol#m               Fa#m      Sol#m
Welcome to San Pedro, oh oh... Welcome to San Pedro, oh oh...
                Do#m       Sol#m               Fa#m      Sol#m
Welcome to San Pedro, oh oh... Welcome to San Pedro, oh oh...

Montuca gonna sing to the world, Montuca gonna sing to the world.
Montuca gonna sing to the gilrs, Montuca gonna sing to the world.

Montuca bring to love to the streets. 
Montuca bring to love back to the kids.
Montuca bring to love to this country, HONDURAS!!!
Montuca bring to love back to the world...

Welcome to San Pedro, oh oh... X4

INTRO

Montuca gonna sing to the world, Montuca gonna sing to the girls.
Montuca gonna sing to this place, Montuca gonna sing to the world.

Montuca trae el amor pa' las calles.
Montuca trae el amor pa' los niños.
Montuca trae el amor pa' mi pueblo, HONDURAS!!!
Montuca bring to love back to the world...

Welcome to the world, oh oh oh. Welcome to San Pedro, oh oh...
Welcome to San Pedro, oh oh... Welcome to San Pedro, oh oh...

Salsa

Montuca gonna sing to the world, the world, Montuca gonna sing to the girls. 
Montuca gonna sing to the world, the world, Montuca gonna sing to the girls.

Montuca many love to the streets, the streets.
Montuca many love to the kids.
Montuca many love to this country.
Montuca many love to this place.

Montuca many love to the world, the world.
Montuca many love to the kids.
Montuca many love to this country, country,
HONDURAS.

Welcome to San Pedro....
Calificar esta versión:
Aviso: Este fichero es trabajo propio de su transcriptor y representa su interpretación personal de la canción. El material contenido en esta página es para exclusivo uso privado, por lo que se prohibe su reproducción o retransmisión, así como su uso para fines comerciales.