Amor, Mocedades (tablatura)

Autor: Anónimo | 20980 visualizaciones



Esta es una trancripción en el tono original de Mocedades.
Chequenla y compárenla , vale la pena tiene los tonos exactos. 
Es una corrección a las dos anteriores versiones que están 
aquí en ATAME.


    A                    E             F#m           E
E --9--9--9-10-12-12-12--9-7-7-7-9-10--5-5-5-7-9-9-5-4--| 
B -10-10-10-10-10-10-10-10-9-9-9-9-----7-7-7-7-7-7-7-5--|
G --9---------------------------------------------------|
D -------------------------------------7----------------|
A --0---------------------------------------------------|
E -----------------------0---------------------------0--|


A                               E
No era mi intención hablar de amor pero ya ves
D/F                       A
me ha traicionado el corazón,
A                                             E
y es que estando tu por medio de que puedo hablar
Bm7                F#m
si eres mi unica razón,
E       D   E A
amor, amor, amor.


    A                    E             F#m           E
E --9--9--9-10-12-12-12--9-7-7-7-9-10--5-5-5-7-9-9-5-4--| 
B -10-10-10-10-10-10-10-10-9-9-9-9-----7-7-7-7-7-7-7-5--|
G --9---------------------------------------------------|
D -------------------------------------7----------------|
A --0---------------------------------------------------|
E -----------------------0---------------------------0--|


A                      E
Es una palabra tan sencilla de decir
D/F                 A
y tan dificil de sentir,
A                             E
todo el mundo ha dicho yo te quiero alguna vez
Bm7                   F#m
y ha regalado alguna flor,
  E     D   E A
amor, amor, amor,
  E     D   E A
amor, amor, amor.


    A                    E             F#m           E
E --9--9--9-10-12-12-12--9-7-7-7-9-10--5-5-5-7-9-9-5-4--| 
B -10-10-10-10-10-10-10-10-9-9-9-9-----7-7-7-7-7-7-7-5--|
G --9---------------------------------------------------|
D -------------------------------------7----------------|
A --0---------------------------------------------------|
E -----------------------0---------------------------0--|


A                        E
Nunca supe hacer poemas sólo se cantar
D/F                       A
y a mi me gusta está canción,
A                      E
es poquita cosa, es ingenua, es para ti
Bm7               F#m
es una simple canción,
    E         D   E    A      
de amor, de amor, de amor,
    E         D   E    A
de amor, de amor, de amor,
    E          F#m  D        A
de amor, de amor, mmmm, de amor.


    A                    E             F#m           E   A
E --9--9--9-10-12-12-12--9-7-7-7-9-10--5-5-5-7-9-9-5-4---0-|
B -10-10-10-10-10-10-10-10-9-9-9-9-----7-7-7-7-7-7-7-5---2-|
G --9----------------------------------------------------2-|
D -------------------------------------7-----------------2-|
A --0----------------------------------------------------0-|
E -----------------------0---------------------------0-----|

Fuente original: LaCuerda
Colaborador original: Jorge Vargas Johnston [jorvarjohn_61@hotmail.com]





Calificar esta versión:
Aviso: Este fichero es trabajo propio de su transcriptor y representa su interpretación personal de la canción. El material contenido en esta página es para exclusivo uso privado, por lo que se prohibe su reproducción o retransmisión, así como su uso para fines comerciales.
Más versiones de Amor, Mocedades
Amor
acordes
Amor
tablatura
Amor (ver 2)
tablatura
Descubre más canciones de Mocedades