American Psycho, Misfits (tablatura)

Autor: metal90 | 15147 visualizaciones

American Psycho

Intro:

E|-------------------------------------------------|
B|-------------------------------------------------|
G|--5-5-5-5-5-5-------------5-5-5-5-5-5------------|
D|--5-5-5-5-5-5-5-5-5-5-5-5-5-5-5-5-5-5-5-5-5-5-5-5|
A|--3-3-3-3-3-3-5-5-5-5-5-5-3-3-3-3-3-3-5-5-5-5-5-5|
E|--------------3-3-3-3-3-3-------------3-3-3-3-3-3|
Cont.
E|-------------------------------------------------|
B|-------------------------------------------------|
G|--5-5-5-5-5-5------------------------------------|
D|--5-5-5-5-5-5-5-5-5-5-5-5-8-8-8-8-811-11-11-11-11|
A|--3-3-3-3-3-3-5-5-5-5-5-5-6-6-6-6-6-9--9--9--9--9|
E|--------------3-3-3-3-3-3------------------------|

Verse:

E|-------------------------------------------------|
B|-------------------------------------------------|
G|-----------------4-4-4-4-------------------------|
D|-2-2-2-2-5-5-5-5-4-4-4-4-5-5-4-4-----------------|
A|-2-2-2-2-5-5-5-5-2-2-2-2-5-5-4-4-----------------|
E|-0-0-0-0-3-3-3-3---------3-3-2-2-----------------|
  |----------------------|
         palm mute

Other Part:

E|-------------------------|-----------------------|
B|-------------------------|-----------------------|
G|--6-6-6-6-6--------------|-4-4-4-4-4-------------|
D|--6-6-6-6-6-4-4-4-6-6-6--|-4-4-4-4-4-6-6-6-6-6---|
A|--4-4-4-4-4-4-4-4-6-6-6--|-2-2-2-2-2-6-6-6-6-6---|
E|------------2-2-2-4-4-4--|-----------4-4-4-4-4---|

Comentarios del colaborador: ps si fallo en algo la tab digamenlo

Calificar esta versión:
Aviso: Este fichero es trabajo propio de su transcriptor y representa su interpretación personal de la canción. El material contenido en esta página es para exclusivo uso privado, por lo que se prohibe su reproducción o retransmisión, así como su uso para fines comerciales.