7 Things, Miley Cyrus (tablatura)

Autor: angelty507 | 45096 visualizaciones



hay les va esta rola de miley cyrus, ojala y les guste como se escucha


Intro

e]---------------------------------------------------------------------|
B]---------------------------------------------------------------------|
G]----9----------------------------------------------------------------|
D]----9----------------------------------------------------------------|
A]----7 do this chord a bunch of times for intro-----------------------|
E]---------------------------------------------------------------------|

Verse x3

e]-----------------------------------------------------------------------|
B]-----------------------------------------------------------------------|
G]----9-9-9-9-9-9-9-9-9-9---8-8-8-8-8-8-8-8-8-8---6-6-6-6-6-6-6-6-6-6----|
D]----9-9-9-9-9-9-9-9-9-9---8-8-8-8-8-8-8-8-8-8---6-6-6-6-6-6-6-6-6-6----|
A]----7-7-7-7-7-7-7-7-7-7---6-6-6-6-6-6-6-6-6-6---4-4-4-4-4-4-4-4-4-4----|
E------------------------------------------------------------------------|


Chorus

e]-----------------------------------------------------------------------|
B]-----------------------------------------------------------------------|
G]----9--------8--------6---------4--------7---------------9-------------|
D]----9~-------8~-------6~--------4~-------7~--------------9~------------|x3
A]----7--------6--------4---------2--------5---------------7-------------|
E]-----------------------------------------------------------------------|


And the seven things i hate the most that you do..... you make me love you.

e]------------------------------------------------------------------------|
B]------------------------------------------------------------------------|
G]------------------------------------------------------------------------|
D]-------6-6-6-6-6-6-6-6-6---7-7-7-7-7-7-7-7-7-----9--9--9--9--9--9--9--9-|
A]-------6-6-6-6-6-6-6-6-6---7-7-7-7-7-7-7-7-7-----9--9--9--9--9--9--9--9-|
E]-------4-4-4-4-4-4-4-4-4---5-5-5-5-5-5-5-5-5-----7--7--7--7--7--7--7--7-|

Verse 2 x3

e]----------------------------------------------------------------------|
B]----------------------------------------------------------------------|
G]----9-9-9-9-9-9-9-9-9-9---8-8-8-8-8-8-8-8-8-8---6-6-6-6-6-6-6-6-6-6---|
D]----9-9-9-9-9-9-9-9-9-9---8-8-8-8-8-8-8-8-8-8---6-6-6-6-6-6-6-6-6-6---|
A]----7-7-7-7-7-7-7-7-7-7---6-6-6-6-6-6-6-6-6-6---4-4-4-4-4-4-4-4-4-4---|
E-----------------------------------------------------------------------|


Chorus 2

Chorus

e]-----------------------------------------------------------------------|
B]-----------------------------------------------------------------------|
G]----9--------8--------6---------4--------7---------------9-------------|
D]----9~-------8~-------6~--------4~-------7~--------------9~------------|x3
A]----7--------6--------4---------2--------5---------------7-------------|
E]-----------------------------------------------------------------------|


And the seven things i hate the most that you do..... you make me love you.

e]------------------------------------------------------------------------|
B]------------------------------------------------------------------------|
G]------------------------------------------------------------------------|
D]-------6-6-6-6-6-6-6-6-6---7-7-7-7-7-7-7-7-7-----9--9--9--9--9--9--9--9-|
A]-------6-6-6-6-6-6-6-6-6---7-7-7-7-7-7-7-7-7-----9--9--9--9--9--9--9--9-|
E]-------4-4-4-4-4-4-4-4-4---5-5-5-5-5-5-5-5-5-----7--7--7--7--7--7--7--7-|


e]---------------------------------------------------------------------|
B]---------------------------------------------------------------------|
G]----9----------------------------------------------------------------|
D]----9----------------------------------------------------------------|
A]----7 do this chord a bunch of times just like intro-----------------|
E]---------------------------------------------------------------------|

e]---------------------------------------------------------------------|
B]---------------------------------------------------------------------|
G]-----9-----8-----6---------4-----------------------------------------|
D]-----9~----8~----6~--------4~~---------------------------------------|
A]-----7-----6-----4---------2-----------------------------------------|
E]---------------------------------------------------------------------|


The seven things i like about you.....

Chorus

e]-----------------------------------------------------------------------|
B]-----------------------------------------------------------------------|
G]----9--------8--------6---------4--------7---------------9-------------|
D]----9~-------8~-------6~--------4~-------7~--------------9~------------|x3
A]----7--------6--------4---------2--------5---------------7-------------|
E]-----------------------------------------------------------------------|


And the seven things i like the most that you do...you make me love you

e]------------------------------------------------------------------------|
B]------------------------------------------------------------------------|
G]------------------------------------------------------------------------|
D]-------6-6-6-6-6-6-6-6-6---7-7-7-7-7-7-7-7-7-----9--9--9--9--9--9--9--9-|
A]-------6-6-6-6-6-6-6-6-6---7-7-7-7-7-7-7-7-7-----9--9--9--9--9--9--9--9-|
E]-------4-4-4-4-4-4-4-4-4---5-5-5-5-5-5-5-5-5-----7--7--7--7--7--7--7--7-|


e]---------------------------------------------------------------------|
B]---------------------------------------------------------------------|
G]----9----------------------------------------------------------------|
D]----9----------------------------------------------------------------|
A]----7 do this chord a bunch of times just like intro till end.-------|
E]---------------------------------------------------------------------|





Calificar esta versión:
Aviso: Este fichero es trabajo propio de su transcriptor y representa su interpretación personal de la canción. El material contenido en esta página es para exclusivo uso privado, por lo que se prohibe su reproducción o retransmisión, así como su uso para fines comerciales.
Más versiones de 7 Things, Miley Cyrus
7 Things
acordes
7 Things
tablatura
Descubre más canciones de Miley Cyrus