Atado A Un Sentimiento, Miguel Mateos (bajo)

Autor: Anónimo | 29421 visualizaciones



ATADO A UN SENTIMIENTO
MIGUEL MATEOS

*TRANSCRITA POR ADONAY JULIAN SANDOVAL,  [email protected]   *
http://www.tricom.net/~nishio/guitarra.htm

D	  D+5	      G		A	 D   D4  D+5
Te quiero, te extrano, nada es igual al ayer.

oh,oh,oh, nada, oh no!

D D+5 G A (2 VECES)

A
D	  D+5	 G	   A		  D   D+5
Te espero, deseo, como una roca espera al mar
	G	 A    D
te necesito, uo, uo.
A
y vivo, atado a un sentimiento carnal, 
atado a tu luna, oh no.

B
G	    A		Bm		A
Yo puedo tocar el fuego, puedo hasta quemarme entero,
    G	 	       A	 D	D4 D+5
pero no me pidas que te deje de amar.

D D4 D+5

A
Te llevo, clavada como una espina en mi costado
entrando despacio, uo, uo!
y quiero que sepas, que esto esta planeado por amor
un poco de amor nada mas.

B
Puedo arrastrarme a tu puerta, puedo hacer que estes despierta,
las mil y una noches porque estoy...

D D4 D+5

atado a un sentimiento,
solo estoy 
D D4 D+5

atado a un sentimiento.

EN EL PUNTEO VA LA PARTE B DE LA RITMICA
B

A
y vivo atado a un sentimiento, oh no.(4 veces)

---------------------------------------------------
D4  3320XX
D+5 2334XX

=================LAS PISADAS=====================
+-----------------------------------------------+
| Miguel Mateos y Zas                           |
| ATADO A UN SENTIMIENTO                        |
| Miguel Mateos                                 |
| Atado a un Sentimiento (1988)                 |
+-------------------------------------------BAS-+
=============DEL ROCK EN ESPA~OL=================


verso:
G------------------------------------
D------------------------------------ X 2
A-5-5-5-5----------------------------
E----------2-2-2-2--3-3-3-3--5-5-5-5-

G---------------
D--------------- X 1
A-----4------5--
E-5-7---7-5-----

G------------------------------------
D------------------------------------ X 2
A-5-5-5-5----------------------------
E----------2-2-2-2--3-3-3-3--5-5-5-5-

G----------------
D---------------- X 1
A-----4-----5----
E-5-7---7-5------

G------------------------------------------------------
D------------------------------------------------------
A------------------------------------------------------
E-3-3-3-3--5-5-5-5--7-7-7-7--9-9-9-9--3-3-3-3--5-5-5-5-

G-------
D-------
A-5-----
E---0-6-

solo:
G--------------------
D-------------------- X 2
A--------------------
E-3-3-3-3--5-5-5-5---



=================================================
Colaboracion de Julian Daniel
([email protected])





Calificar esta versión:
Aviso: Este fichero es trabajo propio de su transcriptor y representa su interpretación personal de la canción. El material contenido en esta página es para exclusivo uso privado, por lo que se prohibe su reproducción o retransmisión, así como su uso para fines comerciales.
Más versiones de Atado A Un Sentimiento, Miguel Mateos
Atado A Un Sentimiento
acordes
Atado A Un Sentimiento
tablatura
Atado A Un Sentimiento
bajo
Descubre más canciones de Miguel Mateos