Amiga, Miguel Bosé (tablatura) (ver 3)

Autor: Anónimo | 42142 visualizaciones



Hola a todos, les dejo la rola de Amiga de Miguel Bosé,
espero que les guste ya que he sufrido para caral.
Va dedicado a mi papá, alias "cracolas":

Introducción:

  Bm            A                    G       D
e-10------12-14-9-----9--12----------7-----------------------------
B------7-----------10-10-10------10------8--10-8--7----------------
G----7-------------9----------9--9-----7-------------6/7-6-5-------
D------------------------------------------------------------7-----
A---------------12-------------------7------9--7--5--9---9-7-5-9---
E-7-------10-12--------------------------------------7---7---5-7---

  Bm            A                    G       D
e-10------12-14-9-----9--12----------7---------------------9-------
B------7-----------10-10-10------10------8--10-8--7------7---------
G----7-------------9----------9--9-----7---------------7-----------
D------------------------------------------------------------------
A---------------12-------------------7------9--7--5----------------
E-7-------10-12--------------------------------------7-------------


 Bm                                  A
Ahora que te busco y tu no estas, recuerdo
    Bm                                A
que solo la tristeza quiere hablar conmigo.
  G                           A
Ahora que la lluvia se ha llevado el
F#                    Bm
ultimo jiron de tu vestido

 G                           Em      A
Ahora que he olvidado lo que soy, recuerdo en el pasado lo que he
sido.

CORO
       D
Si he sido lo que fui fue por tu cuerpo
            A
Si he sido noche fue tu noche quien lo quiso
            Bm                          A
Si he sido beso es que mis labios aprendieron
                G   Gmaj7
a ser beso para ti
      Em                         A
Si he sido lo que soy fue en tu regazo,
           F#m           F#           Bm
Si he sido vida fue por darte a ti la vida

  G   A     G   A
Amii..ga, Amii..ga
     Em                      A
Que dulce esa palabra suena hoy.

    D
El tiempo no fue tiempo entre nosotros
         A
Estando juntos nos sentimos infinitos
        Bm                      A
y el universo era pequeño comparado
                        G  Gmaj7
con lo que eramos tu y yo

    Em                             A
Si fuiste lo que fuiste fue en mi casa que para
F#m         F#            Bm
ti fue tu palacio y tu guarida.

   G  A     G   A
Amii..ga, Amii..ga.
    Em                         A
Que dulce esa palabra y que sencilla esa palabra suena hoy

  Bm            A                    G       D
e-10------12-14-9-----9--12----------7-----------------------------
B------7-----------10-10-10------10------8--10-8--7----------------
G----7-------------9----------9--9-----7-------------6/7-6-5-------
D------------------------------------------------------------7-----
A---------------12-------------------7------9--7--5--9---9-7-5-9---
E-7-------10-12--------------------------------------7---7---5-7---

  Bm            A                    G       D
e-10------12-14-9-----9--12----------7---------------------9-------
B------7-----------10-10-10------10------8--10-8--7------7---------
G----7-------------9----------9--9-----7---------------7-----------
D------------------------------------------------------------------
A---------------12-------------------7------9--7--5----------------
E-7-------10-12--------------------------------------7-------------


       Bm                                    A
No hay noche mas obscura que esta noche y el frio
   Bm                                 A
se va depositando en los rincones del alma.

    G                          A        F#
Y ahora que el silencio va borrando la suave
                   Bm
vibracion de tus palabras.

  G                           Em
Ahora que no son la espera es nada
   A
recuerdo lo que fui cuando no estabas

CORO:
       D
Si he sido lo que fui fue por tu cuerpo
            A
Si he sido noche fue tu noche quien lo quiso
            Bm                          A
Si he sido beso es que mis labios aprendieron
                G   Gmaj7
a ser beso para ti
      Em                         A
Si he sido lo que soy fue en tu regazo,
           F#m           F#           Bm
Si he sido vida fue por darte a ti la vida

  G   A     G   A
Amii..ga, Amii..ga
     Em                      A
Que dulce esa palabra suena hoy.

    D
El tiempo no fue tiempo entre nosotros
         A
Estando juntos nos sentimos infinitos
        Bm                      A
y el universo era pequeño comparado
                        G  Gmaj7
con lo que eramos tu y yo

    Em                             A
Si fuiste lo que fuiste fue en mi casa que para
F#m         F#            Bm
ti fue tu palacio y tu guarida.

  G   A     G   A
Amii..ga, Amii..ga.
    Em                          A
Que dulce esa palabra y que sencilla esa palabra suena hoy

  Bm            A                    G       D
e-10------12-14-9-----9--12----------7-----------------------------
B------7-----------10-10-10------10------8--10-8--7----------------
G----7-------------9----------9--9-----7-------------6/7-6-5-------
D------------------------------------------------------------7-----
A---------------12-------------------7------9--7--5--9---9-7-5-9---
E-7-------10-12--------------------------------------7---7---5-7---

  Bm            A                    G       D
e-10------12-14-9-----9--12----------7---------------------9-------
B------7-----------10-10-10------10------8--10-8--7------7---------
G----7-------------9----------9--9-----7---------------7-----------
D------------------------------------------------------------------
A---------------12-------------------7------9--7--5----------------
E-7-------10-12--------------------------------------7-------------





Calificar esta versión:
Aviso: Este fichero es trabajo propio de su transcriptor y representa su interpretación personal de la canción. El material contenido en esta página es para exclusivo uso privado, por lo que se prohibe su reproducción o retransmisión, así como su uso para fines comerciales.
Más versiones de Amiga, Miguel Bosé
Amiga
acordes
Amiga (ver 2)
acordes
Amiga (ver 3)
acordes
Amiga
tablatura
Amiga (ver 2)
tablatura
Amiga (ver 3)
tablatura
Descubre más canciones de Miguel Bosé