Nothing Else Matters, Metallica (tablatura) (ver 4)

Autor: facuok | 39163 visualizaciones



INTRO.

Gtr.I
fig. I
|---------0-------|-------0-----|-------0------|------0------7-|
|-------0---0-----|-----0---0---|-----0---0----|----0---0------|
|-----0-------0---|---0-------0-|---0-------0--|--0-------0----|
|-----------------|-------------|--------------|---------------|
|-----------------|-------------|--------------|---------------|
|---0-------------|-0-----------|--0-----------|-0------------0-|

Gtr.II
|---------15------|-------------|--------------|
|-----------------|-------------|-------15-----|
|-----------------|-------------|--------------|
|-----------------|-------------|--------------|
|-----------------|-------------|--------------|
|-----------------|-------------|--------------|

Gtr.I 
Fig.II     P     H P     p
|-7------7---0----------7-8-7-8-7/5--7-5-----------2-0--------|
|-----0--------0--------0-0-0--------0-0--5---5--5-----5------|
|---0------------0----0--------------------------5---------5---|
|--------------------------------------------------------------|
|------------------------------------------0---0---------------|
|-0------0----------0------------------------------------------|
 Gtr.II
|-----------------------------|
|---------------------5-------|
|-----------------------------|
|-----------------------------|
|-----------------------------|
|-----------------------------|

Gtr.I
Fig. III     P     H P   P    P
|-------0---------------0---3-0-----------------0---0-5-0------------|
|-----5----5--5---5---5---5-----5-----5-------7---7-------7-0--5-0---|
|---5----------------5------------5---------7------------------------|
|--------------------------------------------------------------------|
|-0--------0--2---3-----------------3---5----------------------------|
|--------------------------------------------------------------------|

Gtr.II
|--------------------------------------------12-|
|-----------------------------------------------|
|-7--------5------------------------------9-----|
|-----------------------------------------------|
|-----------------------------------------------|
|-----------------------------------------------|

Gtr.I harm
Fig. IIII
|------12-------------0---------------0---------------|
|---------0---------0---0-----------0---0-------------|
|-----------0-----0-------0-------0-------0-----------|
|-----------------------------------------------------|
|-----------------------------------------------------|
|-0-------------0--------------0----------------------|

Gtrs.I & III
Fig. IIIII
|------------7--7-----------------------------------|
|------------8--8-------7-----------5---------------|
|---------9-------------7-----------5---------------|
|-------9-------------7---------5-------------------|
|-----7------------5---------3----------------------|
|-0-------------------------------------------------|

Then Figure Five.
Then First Part Of Figure One.

VERSE ONE.

Gtr. I
|----------3--0---------2--2-2-2-3---0--0--0-----------3--0-----|
|---------------0-------3--3-3-3-3---3--3--3----------------0---|
|-----------------0-----2--2-2-2-0---0--0--0------------------0-|
|------2----------------0--0-0-0-0-------------------2----------|
|----2-------------------------------3--3--3-------2------------|
|-0------------------------------------------3-2-0--------------|

Gtr. I cont...
  P
|-------------2--2-2-2--0--|---------0-------------0---------|
|-------3--0--0--0-0-0--0--|-------0---0---------0---0-------|
|-------------2--2-2-2-----|-----0-------0-----0-------0-----|
|-------------1--1-1-1-----|---------------------------------|
|----2--------2--2-2-2-----|---------------------------------|
|--3-----------------------|--0-------------0------------3-2-|

VERSE TWO.
         HH
|---------------------------------------------|
|-----------7---7-8-----------8------7-7-8----|
|-------9-----------9-----------9-----------9-|
|---------------------------------9-----------|
|---------------------------------------------|
|--0------------------------------------------|

|------------------------------------------------------|
|--12------10-----8---8---------------7----7-----7-----|
|--12------11-----9---7----11-------7-----7-----7------|
|-------------------------9----------------------------|
|------------------------------------------------------|
|------------------------------------------------------|

VERSE THREE.
     H       H
|-----------------------------------------------------------------|
|---7------7----7---7-8-------7-------7---7---7-8-----7--7--------|
|-7------7----7---------9---7-------7-------------9--7--7---------|
|-----------------------------------------------------------------|
|-----------------------------------------------------------------|
|-----------------------------------------------------------------|

|-------------------------------14--12--14-15-14-12-15-14-12------|
|--------------------12--15---------------------------------------|
|---------11-12-14-----------14-----------------------------------|
|--12--14---------------------------------------------------------|
|-------------------------------------------------------------12--|
|-----------------------------------------------------------------|

CHORUS

|-------------------------12---17--17---19----14-----------15-------|
|------------------------------------------12-----------------------|
|--14---------------15----------------------------14-12----11-12-14-|
|-------------------------------------------------------------------|
|-------------------------------------------------------------------|
|-------------------------------------------------------------------|

VERSE FOUR.
H
|-----------------------7---------------------------------------|
|-----------7--7-8----8---8------7---7-10-10---7---7-10-10-8-7--|
|----12------------9--------9----------------------------------9|
|-12-14-----------------------9---------------------------------|
|---------------------------------------------------------------|
|---------------------------------------------------------------|
 H
|---------------------------------------------|
|-10--8-7-8-------------------8-10------------|
|-----------9---------------------------------|
|----------------9--9----9--------------------|
|---------------------------------------------|
|---------------------------------------------|

CHORUS.

|------------------------------------------------------|
|---------------13-----15--12--------12--15------------|
|---14------14-----14---------12--14-------------------|
|-------14---------------------------------------------|
|------------------------------------------------------|
|------------------------------------------------------|

INTERLUDE.

|-15/12-------17/14--------19/15-------20/17-------12/8--------------|
|-------17/12-------17/12--------17/12-------17/12------13/15--------|
|-------------------------------------------------------------5------|
|--------------------------------------------------------------------|
|--------------------------------------------------------------------|
|--------------------------------------------------------------------|

|-8------8/8-----12/0-----------0--14/0------------0---0--12/17-0-----|
|--5---5----5--------13/1-------0------15/3---------3-12-------12-0--|
|---5-5-------5-----------12/0--------------14/12------------------0-|
|---------------------------------------------------------------------|
|---------------------------------------------------------------------|
|---------------------------------------------------------------------|

|-----0--15/12-------17/14-------20/17-------12/8-------8--12---13--12--13/8---1
|----0---------17/12-------17/12-------17/12-----13/5-------5---------5------5--
|---0-------------------------------------------------5-------5----5------------
|-------------------------------------------------------------------------------
|-------------------------------------------------------------------------------
|-0-----------------------------------------------------------------------------

|-12----------------------------------------------------------------------------
|---13----------------------------------------15-----------15---------15--------
|-----12--------12--12-14-14-BU(16)-12--12-14----14-BU(16)---14BU(16)----14BU(16
|---------12-14---14------------------14----------------------------------------
|-------------------------------------------------------------------------------
|-------------------------------------------------------------------------------

  VERSE 5.
|----------------|-----3--0------2-2-2-2-2-0-0-0------|
|------------P---|----------0----3-3-3-3-3-3-3-3------|
|-14BU(16)-12-14-|------------0--2-2-2-2-2-0-0-0------|
|----------------|---------------0-0-0-0-0------------|
|----------------|--14---------------------3-3-3------|
|----------------|-------------------------------3-2--|
    VERSE 6.
|-----H----------H-----------------|-----------|
|-7--7-8------7-7-8------7-8-10-12-|-8-8---8-8-|
|--------7--9-------7--9---9-11-12-|-9-9---9-9-|
|----------------------------------|-----------|
|----------------------------------|-----------|
|----------------------------------|-----------|
cont...
|-------------------------------------7-----7-----5-----3----3-2-|
|-7-5--5--3--8-8---8-----7--5---5--3--8--8--8--8--5--7--3--5-----|
|-7-7--5--5--9-9---9--9--7--7---5--5--9--9--9--9--7--7--5--5-----|
|---------------------9------------------------------------------|
|----------------------------------------------------------------|
|----------------------------------------------------------------|

|---0----------3------------5-----------------|
|---------------------------------------------|
|---------------------------------------------|
|---------------------------------------------|
|---------------------------------------------|
|---------------------------------------------|

CHORUS.

|-----10----------10------------------------------------|
|---10---8-7---10----7---------------------10-----------|
|--7----------7--------7-----7-9-7----7--9----9---9-----|
|-7----------7------------10-------10--7--------7-------|
|-------------------------------------------------------|
|-------------------------------------------------------|
       PM__________________
|--------0---------------------------------|
|------0---0-------------------------------|
|----0-------0-----------------------------|
|------------------------------------------|
|------------------------------------------|
|-0------------0-0-0-0-0-0-0-0-0-0---------|

GUITAR SOLO.

|----------------------------------------------------------------------12-------
|-15------------------------------H---P-------------------------------12--------
|-14BU(16)BU(16)-R(14)-12-14-12-11-12-11----11--------12-14-12-14BU(16)------14B
|-------------------------------------14----12/14-------------------------------
|-------------------------------------------------------------------------------
|-------------------------------------------------------------------------------
      H  P  
1|9s(15)14--15-14s(17)17-15-14-15-14/12---15-14----------------------12--
2|--------12-----------------------------12------12-----------------12---
3|--------------------------------------------------12-14-12-14BU(16)----
4|-----------------------------------------------------------------------
5|-----------------------------------------------------------------------
6|-----------------------------------------------------------------------

1|---------------------------------------------------
2|-15-15b(17)-----12h15p12/7/57--5------------------
3|---------------------------------------------------
4|---------------------------------------------------
5|---------------------------------------------------
6|---------------------------------------------------


OUTRO
  P
E-------0-----------0----7-7-----7-0-----
B-----0---0-------0---0------0-------0---
G---0-------0---0--------------0-------0-
D----------------------------------------
A----------------------------------------
E-0-----------0------------0-------------
   P H
E-----7-8-7-8-7-5-7-5-0--0-----0-7-
B-----0-0-----------------0-0---0-0--
G---0--------------------0---0-0-----
D------------------------------------
A------------------------------------
E-0---------------------0-----0------





Calificar esta versión:
Aviso: Este fichero es trabajo propio de su transcriptor y representa su interpretación personal de la canción. El material contenido en esta página es para exclusivo uso privado, por lo que se prohibe su reproducción o retransmisión, así como su uso para fines comerciales.