Dont Tread On Me, Metallica (tablatura) (ver 2)

Autor: facuok | 27576 visualizaciones

All gtrs tune down 1/2 step 

 Gtr I
|-------------------------------|
|-------------------------------|
|-------------------------------|
|-------------------------------|
|--2-2-2---3-3---2-2-2---3-3----|
|--0-0-0---1-1---0-0-0---1-1----|

Gtr 2
|--------------------------|---------------------------|
|--------------------------|---------------------------|
|-------9-9-9--------------|-------9-9-9-/11-----------|
|-9-9-9-------9-/11---7----|-9-9-9-----------?13?--9---| <-- I'm not sure about the 13th fr....
|-------7-7-7---------0--7-|-------7-7-7--/9-----------|
|-7-7-7-------7--/9------0-|-7-7-7-----------?13?--7---| <-- I'm not sure about the 13th fr....

|-------------------------------|--------
|-------------------------------|--------------------------|--------------------
|----------12-12-12-11----------|-------5-5-5-------9------|--------------------
|-12-12-12--------------12--7---|-5-5-5-----------9--------|--------------------
|----------10-10-10--9------0---|-------3-3-3-------7------|--------------------
|-10-10-10--------------10------|-3-3-3-----------7--------|--------------------
Calificar esta versión:
Aviso: Este fichero es trabajo propio de su transcriptor y representa su interpretación personal de la canción. El material contenido en esta página es para exclusivo uso privado, por lo que se prohibe su reproducción o retransmisión, así como su uso para fines comerciales.
Más versiones de Dont Tread On Me, Metallica
Dont Tread On Me
tablatura
Dont Tread On Me (ver 2)
tablatura
Descubre más canciones de Metallica