Blackened, Metallica (tablatura) (ver 3)

Autor: MEMELAS | 44606 visualizaciones

Q tranza, compatriotas! Soy yo d nuevo: Black Dog, y ahora les traigo el requinto de una de las primeras canciones de Metallica: ?Blackedned?, para aquellos que les guste recordar los viejos tiempos. Tal vez se preguntaran por qué  no saqué la canción completa, pero lo q pasa es q m he metido en paginas Web donde hay hasta 7 ?Blackedned?s? diferentes, echas por diferentes autores, pero ninguna traía el requinto, así q decidí facilitarles la vida, y ponerlo sin INTRO, RIFFS, y toda la cosa.

h - Golpeteo de cuerda.
p - Regresar a cierto número de traste.
/ - Resbalar hacia el traste predeterminado (En dirección al cuerpo de guitarra).
% - Golpear la cuerda con la yema de un dedo de la mano derecha.
^ - Elevar cuerda, haciendo un sonido duradero y agudo.
~ - Hacer vibrar la cuerda.
^+~ - Elevar la cuerda una y otra vez.
\ - Resbalar la cuerda en dirección opuesta al cuerpo de la guitarra. 


?Blackedned?
James Hatfield y Kirk Hammed
(Requinto)


      Guitarra I (kirk) y II (James) (sincronizadas)
|---------7------5---7-------5---7--9---7h8p7/5-|---------7------7---9------7---9--11-9h10p9/7-|
|-5---5------5----------5-----------------------|-5---5------5----------5----------------------| 
|-----------------------------------------------|----------------------------------------------|x2 
|-----------------------------------------------|----------------------------------------------|

|---------9------7---9-------7---9--11--9h10p9/7-|---------9------9---11------9--11-12?9h10p9/7-|
|-5---5------5----------5------------------------|-5---5------5----------5----------------------| 
|------------------------------------------------|----------------------------------------------|x2
|------------------------------------------------|----------------------------------------------|

     Guitarra I (solo)
|-11/12--14-15---12--14-15---12--14-15---12--14-15-|-13p12-14--10p9-11--8p7-9--6p5-7--4p3-5--3p2-4--4p3p2-0-2~-|
|--------------------------------------------------|-----------------------------------------------------------|
|--------------------------------------------------|-----------------------------------------------------------|
|--------------------------------------------------|-----------------------------------------------------------|
|--------------------------------------------------|-----------------------------------------------------------|

|---------------------------------------------------------------------------------------------------9------| Esto tendrás q hacerlo             
|-2/3/2-------2-3h4p3-------3-5h6p5-------7h8p7-----9p7-8p7-10-----7p6p5----10h11h12---11----| demasiado rápido para q suene
|----------3-4------------4-5-------------6-7----------8-----------------8----------8------------------| igual, m costo 1 semana q m
|----------------------------------------------------------------------------------------------------------| saliera, y es exacto?
|----------------------------------------------------------------------------------------------------------| 
|----------------------------------------------------------------------------------------------------------| 

|-%15-15-15-15-14-14-14-14-13-13-13-13-13-13-13-13-13-13-13-13-13-14-14h15p14-13h14p13-12h13p12-11-10----%| 
|-%---------------------------------------------------------------------------------------------------10-%|
|---------------------------------------------------------------------------------------------------------|
|---------------------------------------------------------------------------------------------------------|
|---------------------------------------------------------------------------------------------------------|



|-11/12^---11/12^---11/12/11--9h11--7h9p7--8---5h7-6--/--15^~--15^~--15^~--15-15--12--14--12h14p12-12h13p12-12^~~~-|
|------------------------------------------------------------------------------------------------------------------|
|------------------------------------------------------------------------------------------------------------------|
|------------------------------------------------------------------------------------------------------------------|
|------------------------------------------------------------------------------------------------------------------|

|----------1--2-0----|         |----------|
|-2--1--0------------| x2    |-2--1-----|

|-14^~~~~~~~~~~------------------------------------------------------------------------------------------|
|-15^~~~~~~~~~~-15-14-12h13p12-11h12p11-9h10p9-8h9p8-7h8p7-6h7p6-5h6p5-4h5p4-3h4p3-3-5^~-5^~-3-4-3-5-3-4-|
|--------------------------------------------------------------------------------------------------------|
|--------------------------------------------------------------------------------------------------------|
|--------------------------------------------------------------------------------------------------------|

|-6-5-3-5-6-6p5-5p4-4p3-2^~---2^/////--\\\\\----------------------------------------------|
|----------------------------------------------------(2--3--3/5---3--5--5/7--7--9--6p5-4)-|
|-----------------------------------------------------------------------------------------|
|-----------------------------------------------------------------------------------------|
|-----------------------------------------------------------------------------------------|

|---------------------------------|
|-4-5-5h6p5-4-5-5h7p5-4-5-5h7p5-6-|
|---------------------------------|
|---------------------------------|  A
|---------------------------------|
|---------------------------------|

|-------------------------------|
|-------------------------------|
|------7/9------5/7-------5p4-2-|
|-0-0------0-0-------0-0--------|
|-------------------------------|
|-------------------------------|

     Se repite la parte con la letra A, después repite la parte q esta entre paréntesis; y el final:

|-----------------------------------------------------------------------------------------------------------------|
|-----------------------------------------------------------------------------------------------------------------|
|-/////-%16-17-17-17-17-17-17-17-17-15-15-15-15-15-15-15-15-15-15-18-18-18-18-18-18-18-18-16-16-16-16-16-16-16-16-|
|-----------------------------------------------------------------------------------------------------------------|
|-----------------------------------------------------------------------------------------------------------------|
|-----------------------------------------------------------------------------------------------------------------|

|------------|
|------------|
|-(15)-17-16-|
|------------| x 8 Excepto lo de paréntesis después d q la repitas la primera vez, y termina así:
|------------|
|------------|

|------------------|
|------------------|
|-17^---17^----17^-|
|------------------|
|------------------|
|------------------|

Felicidades, ya terminaste el solo de  la canción ?Blackedned?, espero y t haya gustado, si estoy mal en algo, escríbeme a METALLICA291096@hotmail.com, o mándame una petición d tab.
Calificar esta versión:
Aviso: Este fichero es trabajo propio de su transcriptor y representa su interpretación personal de la canción. El material contenido en esta página es para exclusivo uso privado, por lo que se prohibe su reproducción o retransmisión, así como su uso para fines comerciales.
Más versiones de Blackened, Metallica
Blackened
tablatura
Blackened (ver 2)
tablatura
Blackened (ver 3)
tablatura
Blackened
bajo
Descubre más canciones de Metallica