Gracias A La Vida, Mercedes Sosa (tablatura) (ver 2)

Autor: Anónimo | 36157 visualizaciones



Am                E7			    Am         
e --0---0----0--0--1----------------------------0----------------
B --1-----------------0---1--3---3---3----3--1-------------0--1--
G --2-----------------1---2--4----------------------2---2--0--2--
D --------------------------------------------------2---2--------
A --0-----------------------------------------------0------------
E --------------------0------------------------------------------
    Gra cias a  la vi da         que meha da do tan to
 

                     G7                     C
e -----------------------0---0----0------0-----
B --1--1---1---1--1------------------3------1--
G -------------------0---0-----------4------0--
D --2----------------0-------------------------
A ------------------------------------------3--
E -------------------3-------------------------
    me dio dos lu ce ros que cuan do los a  bro

    C7						    F
e --0---0---0--0---0-----------------------0-----------
B --1------------------3---------3--3--3-------3----1--
G --3------------------3---------3-----3------------2--
D ---------------------2--0---3----------------2----3--
A -------------------------------------1---------------
E -----------------------------------------------------
    per fec to dis tin go        lo ne gro del blan co

                     E7			    Am
e ---------------------------------------------
B --1---1--1--3--1---0--0--1---3----5---6---5--
G --2----------------1--1--2---4----5---7---5--
D ------------3--------------------------------
A -------------------2----------------------0--
E -----------------------------0---------------
    yen el al to cie lo su fon does tre lla do
   
    Dm                          E7        Am
e ------------------------------0------------
B --3---3---3---3--3--1---0--1-----1---0-----
G --2---------------------1-----1---------2--
D --0--------------3----------------------2--
A ------------------------------2---------0--
E ------------------------0------------------
    yen las mul ti tu des la mu jer que a mo


(LOS SIGUIENTES VERSOS SE REPITEN IGUAL)


Gracias a la vida que me ha dado tanto

me ha dado el oído que en todo su ancho

graba noche y día grillos y canarios,

martillos, turbinas, ladridos, chubascos,

y la voz tan tierna de mi bien amada.



Gracias a la vida que me ha dado tanto

me ha dado el sonido y el abecedario

con el las palabras que pienso y declaro

madre, amigo, hermano y luz alumbrando

la ruta del alma de quien voy amando.



Gracias a la vida que me ha dado tanto

me dio el corazón que agita su marco

cuando miro al fruto del cerebro humano

cuando miro al bueno tan lejos del malo

cuando miro al fruto de tus ojos claros.



Gracias a la vida que me ha dado tanto

me ha dado la marcha de mis pies cansados

con ellos anduve ciudades y charcos,

playas y desiertos, montañas y llanos,

y la casa tuya, tu calle y tu patio.



Gracias a la vida que me ha dado tanto

me ha dado la risa y me ha dado el llanto

así yo distingo dicha de quebranto

y los materiales que forman mi canto

y el canto de ustedes que es el mismo canto,


    Dm                           E7        Am
e -------------------------------0-------------
B --3---3---3--3--3--1---0----1------1--0------
G --2--------------------1-------1----------2--
D --0-------------3-------------------------2--
A -------------------------------2----------0--
E -----------------------0---------------------
    yel can to de to dos ques el mis mo can to


                     Dm E7 Am
e ----0---0----0--0--1--0--0--
B ----0--------------3--2--1--
G -------------------2--1--2--
D -------------------------2--
A -------------------------0--
E ----------------------0-----
. . . gra cias a  la vi i  da

Fuente original: LaCuerda
Colaborador original: Jorge Vargas Johnston [jorvarjohn_61@hotmail.com]





Calificar esta versión:
Aviso: Este fichero es trabajo propio de su transcriptor y representa su interpretación personal de la canción. El material contenido en esta página es para exclusivo uso privado, por lo que se prohibe su reproducción o retransmisión, así como su uso para fines comerciales.
Más versiones de Gracias A La Vida, Mercedes Sosa
Gracias A La Vida
acordes
Gracias A La Vida
tablatura
Gracias A La Vida (ver 2)
tablatura
Descubre más canciones de Mercedes Sosa