Alfonsina Y El Mar, Mercedes Sosa (tablatura)

Autor: Anónimo | 46559 visualizaciones



Esta es la introducción más sepulcral que he oído:

e|-----|------------|-----|--------|-----------
B|-----|------------|-----|--------|-----------
G|---0-|-----------0|-----|--------|-----------
D|-4---|--1---------|-2-3-|-0----3-|-1-0---0---
A|-----|-----3------|-----|---2----|-----3---3-
E|-----|--------3---|-----|-----3--|-----------

Ahora, más rápido

e|-----|------------|-----|------------|------------
B|-----|------------|-----|------------|------------
G|---0-|-----------0|-----|------------|------------
D|-----|--1---------|---3-|--0-------3-|-1-0---0----
A|-----|-----3------|-----|-----2------|-----3----3-
E|-----|--------3---|-----|--------3---|------------

"Por la blanda arena...°
e|-------------------------|-------------------------
B|----1-2-1-2-1-0-1--------|-------------------------
G|-3------------------3--1-|----0-1-0-1-0-1---0------
D|-------------------------|-3--------------4---3-1--
A|-------------------------|-------------------------
E|-------------------------|-------------------------

e|-------------------------------------------------
B|-------------------------------------------------
G|----------------------------0--------------------
D|---0-1-0-1-0-1-3-1-3--3-1-3---3-1-3-1-0-1-0---0--
A|-3------------------------------------------3---3
E|-------------------------------------------------

e|---------------------------------------------------
B|------------------3-1------------------------------
G|-----0-1-0-1-0-1-------0---------------------------
D|--3---------------------------3-1-3-1-0-1--0---0---
A|---------------------------------------------3---3-
E|---------------------------------------------------

Se repite

"Te vas Alfonsina con tu soledad..."
e|----------------1----------|-------------------------
B|-1-3-4-3-4-3-4----3--------|---------1-2-1---------1-
G|----------------------3--0-|-0-1-3---------3-1-0-----
D|---------------------------|-------------------------
A|---------------------------|-------------------------
E|---------------------------|-------------------------

e|--------------------------------------------------
B|--------------1---------------1-0-3-1-0-3-2-4-3-2-
G|---0-1-0----------3-1-0---------------------------
D|-3---------3-------------3-1----------------------
A|--------------------------------------------------
E|--------------------------------------------------

e|--------------------------------------------------
B|-1-1------1-------------------------------------1-
G|------3-1----3-1-0------0---1-0-1-2-0-2-4-2-4-----
D|---------------------3----4-----------------------
A|--------------------------------------------------
E|--------------------------------------------------

En memoria de Oscar Acero.
Que el alma de Alfonsina Storni y el de todos los fieles difun-
tos, por la infinita misericordia de Dios, descansen en paz.
Amén.





Calificar esta versión:
Aviso: Este fichero es trabajo propio de su transcriptor y representa su interpretación personal de la canción. El material contenido en esta página es para exclusivo uso privado, por lo que se prohibe su reproducción o retransmisión, así como su uso para fines comerciales.
Más versiones de Alfonsina Y El Mar, Mercedes Sosa
Alfonsina Y El Mar
acordes
Alfonsina Y El Mar (ver 2)
acordes
Alfonsina Y El Mar (ver 3)
acordes
Alfonsina Y El Mar
tablatura
Descubre más canciones de Mercedes Sosa