Meu Abrigo, Melim (acordes)

Autor: acordesmar | 2161 visualizaciones

aasosmbcsosdsosd9e9fsos7fsos9fsosmf7gsosgsosm
[Introdução]
A  C#           F#m  D9
Uh, uh, uh, uh, uh, uh
A  C#           F#m  D9
Uh, uh, uh, uh, uh, uh

[Introdução]

Parte 1 de 3
   A              C#
E|---5-x-5--5-x-5----9--x-9---9--x-9------------|
B|---5-x-5--5-x-5----9--x-9---9--x-9------------|
G|---6-x-6--6-x-6----10-x-10--10-x-10-----------|
D|-----x------x---------x--------x--------------|
A|-----x------x---------x--------x--------------|
E|-5---x------x----9----x--------x--------------|

Parte 2 de 3
   F#m                 D9
E|----9--x--9----9--x--9-----5-x-5--5-x-5-------|
B|----10-x--10---10-x--10----5-x-5--5-x-5-------|
G|---21--x-21---21--x-21-----7-x-7--7-x-7-------|
D|-------x----------x----------x------x---------|
A|-9-----x----------x------5---x------x---------|
E|-------x----------x----------x------x---------|

Parte 1 de 3
   A              C#
E|---5-x-5--5-x-5----9--x-9---9--x-9------------|
B|---5-x-5--5-x-5----9--x-9---9--x-9------------|
G|---6-x-6--6-x-6----10-x-10--10-x-10-----------|
D|-----x------x---------x--------x--------------|
A|-----x------x---------x--------x--------------|
E|-5---x------x----9----x--------x--------------|

Parte 3 de 3
   F#m                 D9
E|----9--x--9----9--x--9-----5-x-5-5------------|
B|----10-x--10---10-x--10----5-x-5-5------------|
G|---21--x-21---21--x-21-----7-x-7-7------------|
D|-------x----------x----------x----------------|
A|-9-----x----------x------5---x----------------|
E|-------x----------x----------x----------------|

[Primeira parte]

            A
Desejo a você, 
                E9
O que há de melhor
               F#m
A minha companhia
                   D9
Pra não se sentir só

                  A
O Sol, a lua e o mar
                 E9
Passagem pra viajar
                 F#m
Pra gente se perder
            D9
E se encontrar

[Primeira parte]

Parte 1 de 2
   A              E9
E|---5-x-5--5-x-5----7-x-7--7-x-7-----------|
B|---5-x-5--5-x-5----7-x-7--7-x-7-----------|
G|---6-x-6--6-x-6----9-x-9--9-x-9-----------|
D|-----x------x--------x------x-------------|
A|-----x------x----7---x------x-------------|
E|-5---x------x--------x------x-------------|

Parte 2 de 2
   F#m                 D9
E|---9--x-9---9--x-9-----5-x-5--5-x-5-------|
B|---10-x-10--10-x-10----5-x-5--5-x-5-------|
G|---11-x-11--11-x-11----7-x-7--7-x-7-------|
D|------x--------x---------x------x---------|
A|-9----x--------x-----5---x------x---------|
E|------x--------x---------x------x---------|


[Pré-refrão]

 F#m         E9
Vida boa, brisa e paz
         D9                   A
Nossas brincadeiras ao entardecer
F#m           E9
Rir à toa é bom demais
   D9                         E9
O meu melhor lugar sempre é você

[TAB - Pré-refrão]

Parte 1 de 3
   F#m                  E9
E|----9--x-9----9--x--9-----7-x-7--7-x-7-------|
B|----10-x-10---10-x--10----7-x-7--7-x-7-------|
G|---21--x-11--21--x-21-----9-x-9--9-x-9-------|
D|-------x---------x----------x------x---------|
A|-9-----x---------x------7---x------x---------|
E|-------x---------x----------x------x---------|

Parte 2 de 3
   D9              A
E|---5-x-5--5-x-5-----5-x-5--5-x-5----------|
B|---5-x-5--5-x-5-----5-x-5--5-x-5----------|
G|---7-x-7--7-x-7-----6-x-6--6-x-6----------|
D|-----x------x---------x------x------------|
A|-5---x------x---------x------x------------|
E|-----x------x-----5---x------x------------|

Parte 1 de 3
   F#m                  E9
E|----9--x-9----9--x--9-----7-x-7--7-x-7-------|
B|----10-x-10---10-x--10----7-x-7--7-x-7-------|
G|---21--x-11--21--x-21-----9-x-9--9-x-9-------|
D|-------x---------x----------x------x---------|
A|-9-----x---------x------7---x------x---------|
E|-------x---------x----------x------x---------|

Parte 3 de 3
   D9              E9
E|---5-x-5--5-x-5---7-7-7-7-7---------------|
B|---5-x-5--5-x-5---7-7-7-7-7---------------|
G|---7-x-7--7-x-7---9-9-9-9-9---------------|
D|-----x------x-----9-9-9-9-9---------------|
A|-5---x------x-----7-7-7-7-7---------------|
E|-----x------x-----------------------------|
                    ? ? ? ? ?

[Refrão]

     D9    A        F#m       E9
Você é a razão da minha felicidade
          D9            A 
Não vá dizer que eu não sou 
  F#m        E9
Sua cara-metade
      D9        A   F#m           E9
Meu amor, por favor, vem viver comigo
       D9      E9
O seu colo é o meu abrigo
A  C#           F#m  F#7
Uh, uh, uh, uh, uh, uh

[Segunda parte]

             B
Quero presentear
                 F#9
Com flores Iemanjá
             G#m
Pedir um paraíso
                   E9 [pausa]
Pra gente se encostar

               B
Uma viola a tocar
                       F#9
Melodias pra gente dançar
                 G#m
A bênção das estrelas
            E9
A nos iluminar

[Pré-refrão]

 G#m         F#9
Vida boa, brisa e paz
    E9                    B
Trocando olhares ao anoitecer
 G#m          F#9
Rir à toa é bom demais
   E9                         F#9
Olhar pro céu, sorrir e agradecer

[Refrão final]

     E9    B        G#m       F#9
Você é a razão da minha felicidade
          E9            B 
Não vá dizer que eu não sou 
  G#m        F#9
Sua cara-metade
      E9        B   G#m           F#9
Meu amor, por favor, vem viver comigo
       E9      F#9
O seu colo é o meu abrigo
B  D#          G#m 
Uh, uh, meu abrigo
       E9            B
O seu colo é o meu abrigo
   D#     G#m              E9  C#
O meu abrigo Uh, uh, uh, ah   Ah

     F#9     C#         A#m         G#
Você é a razão da minha felicidade
          F#9             C# 
Não vá dizer que eu não sou 
  A#m        G# 
Sua cara-metade
      F#9         C#    A#m           G# 
Meu amor, por favor, vem viver comigo
       F#9       G#9
O seu colo é o meu abrigo
C#   F7         A#m 
Uh, uh, meu abrigo
       F#9            C# 
O seu colo é o meu abrigo
C#      F7  A#m    
Uh, uhiêêê Hummm
       F#9       G#9    C#
O seu colo é o meu abrigo
Calificar esta versión:
Aviso: Este fichero es trabajo propio de su transcriptor y representa su interpretación personal de la canción. El material contenido en esta página es para exclusivo uso privado, por lo que se prohibe su reproducción o retransmisión, así como su uso para fines comerciales.