Hablando En Plata, Melendi (bajo) (ver 2)

Autor: Anónimo | 33910 visualizaciones

Sol              Re
Hablando en plata soñando en oro,
lam              mim
subiendo al cielo bajando al moro

G------------------------|
D------------------------|
A----5(re)----7(mim)-----|
E-3(sol)---5(lam)--------|

Sol         Re
cds piratas chinos con rosas
lam                      Re
cuentos de hadas un funeral y cuatro bodas

G-------------------|
D-------------------|
A---5(re)---5(re)---|
E-3(sol)-5(lam)-----|

Sol              mim
Me burle en la cara de la ironia
      do                 Re
con todas las vueltas que da la vida

G---------------------------------------------|
D---------------------------------------------|
A---------7-777-7(mim)-3-333-3(do)-5-555-5(re)|
E-3-333-3(sol)--------------------------------|

Sol           Mim
vi reirse a la tristeza
           Do           Re
y vi muy guapa a la mas fea

G---------------------------------------------|
D---------------------------------------------|
A---------7-777-7(mim)-3-333-3(do)-5-555-5(re)|
E-3-333-3(sol)--------------------------------|

Mim                Do        Sol         Re
 y no siempre es mejor lo bueno y lo malo lo peor
        Mim             Do           Sol        Re
 y digo la verdad si miento cuando miento por amor

G-----------------------------------------|
D-----------------------------------------|
A-7-777-7(mim)-3-333-3(do)-----5-555-5(re)|
E----------------------3-333-3(sol)-------|
								X2

Sol              Re
Hablando en plata soñando en oro,
lam              mim
subiendo al cielo bajando al moro

G------------------------|
D------------------------|
A----5(re)----7(mim)-----|
E-3(sol)---5(lam)--------|

Sol         Re
cds piratas chinos con rosas
lam                      Re
cuentos de hadas un funeral y cuatro bodas

G-------------------|
D-------------------|
A---5(re)---5(re)---|
E-3(sol)-5(lam)-----|
				X2

  Sol                    Mim
Ya no se si es el tiempo que va muy deprisa
    Do             Re
o yo muy despacio nadie me avisa

G---------------------------------------------|
D---------------------------------------------|
A---------7-777-7(mim)-3-333-3(do)-5-555-5(re)|
E-3-333-3(sol)--------------------------------|

Sol            Mim
si algo que sube vuelve a bajar
Do                Re
si algo mojado se puede secar

G---------------------------------------------|
D---------------------------------------------|
A---------7-777-7(mim)-3-333-3(do)-5-555-5(re)|
E-3-333-3(sol)--------------------------------|

  Mim             Do          Sol      Re
yo ya no rio si estoy contento ya no lloro por el dolor

G-----------------------------------------|
D-----------------------------------------|
A-7-777-7(mim)-3-333-3(do)-----5-555-5(re)|
E----------------------3-333-3(sol)-------|

        Mim                 Do        Sol           Re
ya no se si estoy fuera o dentro del radar de tu corazón

G-----------------------------------------|
D-----------------------------------------|
A-7-777-7(mim)-3-333-3(do)-----5-555-5(re)|
E----------------------3-333-3(sol)-------|

Sol              Re
Hablando en plata soñando en oro,
lam              mim
subiendo al cielo bajando al moro

G------------------------|
D------------------------|
A----5(re)----7(mim)-----|
E-3(sol)---5(lam)--------|

Sol         Re
cds piratas chinos con rosas
lam                      Re
cuentos de hadas un funeral y cuatro bodas

G-------------------|
D-------------------|
A---5(re)---5(re)---|
E-3(sol)-5(lam)-----|
				X3

Mim             Do          Sol              Re
He creido lo increíble he desmentido lo que vi

G-----------------------|
D-----------------------|
A-7(mim)-3(do)-5(re)----|
E-----------3(sol)------|

Mim          Do         Re          Sol
y ya no digo lo que pienso pq solo pienso en ti

G-----------------------|
D-----------------------|
A-7(mim)-3(do)-5(re)----|
E-----------------3(sol)|
Aviso: Este fichero es trabajo propio de su transcriptor y representa su interpretación personal de la canción. El material contenido en esta página es para exclusivo uso privado, por lo que se prohibe su reproducción o retransmisión, así como su uso para fines comerciales.

Comentarios en Facebook: