Reckoning Day, Megadeth (bajo)

Autor: gaby-argento | 32940 visualizaciones

Gb|-----------------|
Db|-----------------|
Ab|-----------------| x8
Eb|-22222-22222-222-|
                         fill
Gb|-----------------|    |-------------------|
Db|-----------------|    |---------5h7777777-|
Ab|-----------------| x7 |-----5-7-----------|
Eb|-55555-55555-555-|    |-5555--------------|

Figure 2

Gb|--------------------|
Db|--------------------|
Ab|------------2-----0-| x4
Eb|-0---0-2-3-----2----|

Figure 3

Gb|-------------------------------|
Db|-------------------------------|
Ab|-0-----0-3---0---5----0--------| x4
Eb|-----3---------3--------3-1--0-|

Figure 1b

Gb|-----------------|
Db|-----------------|
Ab|-----------------| x8
Eb|-00000-00000-000-|

Figure 4

Gb|---------------------------------------------|
Db|-----------------2-3----2--------------------|
Ab|-0-----0--2--3------------5--------5----3--2-|
Eb|----0----------------------------------------|

  1st                 2nd
Gb|-----------------| |---------------------------------|
Db|-3----2----------| |-3-3-3-3-3-3-3-3-2-2-2-2-2-------|
Ab|-----------5-3-2-| |---------------------------5-3-2-|
Eb|-----------------| |---------------------------------|
Calificar esta versión:
Aviso: Este fichero es trabajo propio de su transcriptor y representa su interpretación personal de la canción. El material contenido en esta página es para exclusivo uso privado, por lo que se prohibe su reproducción o retransmisión, así como su uso para fines comerciales.
Más versiones de Reckoning Day, Megadeth
Reckoning Day
tablatura
Reckoning Day
bajo
Descubre más canciones de Megadeth