Paranoid, Megadeth (tablatura) (ver 2)

Autor: kevin941116@hotmail.com | 32295 visualizaciones

Intro
e|-------------------------------|
B|-------------------------------|
G|-------------------7-9-----7-9-|
D|-7----7---7----7-9-----7-9-----|
A|-7----7---7--------------------|
E|-------------------------------|

e|-------------------------------|
B|-------------------------------|
G|-------------------7-9-----7---|
D|-7----7---7----7-9-----7-9---9-|
A|-7----7---7--------------------|
E|-------------------------------|


Riff 1
Guitar 1
e|---------------------------------|
B|---------------------------------|
G|---------------------------------|
D|-9-9-9-9-9-9-9-9-9-9-9-9-9-9-9-9-|
A|-7-7-7-7-7-7-7-7-7-7-7-7-7-7-7-7-|
E|---------------------------------|
   * * * * * * * * * * * * * * * *
  
e|---------------------------7/8-|
B|---------------------------8/9-|
G|-----------------7-------------|
D|-7-7-7-7-7-7-7-7-5-7----9------|
A|-5-5-5-5-5-5-5-5---5----7------|
E|-------------------------------|
   * * * * * * * *

Guitar 2
e|---------------------------------|
B|---------------------------------|
G|---------------------------------|
D|-9-9-9-9-9-9-9-9-9-9-9-9-9-9-9-9-|
A|-7-7-7-7-7-7-7-7-7-7-7-7-7-7-7-7-|
E|---------------------------------|
   * * * * * * * * * * * * * * * *
e|---------------------------7---|
B|---------------------------8---|
G|-----------------7-----------9-|
D|-7-7-7-7-7-7-7-7-5-7----9------|
A|-5-5-5-5-5-5-5-5---5----7------|
E|-------------------5-----------|
   * * * * * * * *



Riff 2
e|---------------------|
B|---------------------|
G|---------------------|
D|--9--------5----7----|
A|--7--------3----5----|
E|---------------------|

e|---------------------------------|
B|---------------------------------|
G|---------------------------------|
D|-9-9-9-9-9-9-9-9-9-9-9-9-9-9-9-9-|
A|-7-7-7-7-7-7-7-7-7-7-7-7-7-7-7-7-|
E|---------------------------------|
   * * * * * * * * * * * * * * * *


Play Riff 1  
Riff 3
e|-------------------------------------|
B|-------------------------------------|
G|-------------------------------------|
D|-9--------7--------9--------7--------|
A|-7--------5--------7--------5--------|
E|-------------------------------------|
  

Play Riff 1

Play Riff 1   Solo Rhythm

Solo 
Guitar 1
e|----------------------------------------------------------|
B|-15--------------15--------------15-----------------------|
G|-14b16-{14}-{14}-14b16-{14}-{14}-14b16-{14}-{14}-12^------|
D|------------------------------------------------------14~-|
A|----------------------------------------------------------|
E|----------------------------------------------------------|

e|-----------------------------------------|
B|-----------------------------------------|
G|-----------------------------------------|
D|-12h14p12----12--------------------------|
A|----------14----14-13-12----12^----------|
E|-------------------------15-----15~--12\-|

e|-17-15-12-12-17-15-12-12-17-15-12-12-17-15-12-12-|
B|-------------------------------------------------|
G|-------------------------------------------------|
D|-------------------------------------------------|x4
A|-------------------------------------------------|
E|-------------------------------------------------|

e|-15p12--12-15p12-15p12--12-15p12-15p12--12-|
B|------15--------------15--------------15---|
G|-------------------------------------------|
D|-------------------------------------------|
A|-------------------------------------------|
E|-------------------------------------------|

e|-15p12--12-17p12--12-15p12--12-17p12--12-|
B|------15--------15--------15--------15---|
G|-----------------------------------------|
D|-----------------------------------------|
A|-----------------------------------------|
E|-----------------------------------------|

e|-15p12------------------------------------|
B|------15p12-17p12-15p12----12-------------|
G|------------------------14----14p12-14p12-|
D|------------------------------------------|
A|------------------------------------------|
E|------------------------------------------|

e|----------------------------------|
B|----------------------------------|
G|-14b16-{14tm}------------(16)r14--|
D|-----------[slow release]---------|
A|----------------------------------|
E|----------------------------------|

e|---------------------------------------------------------|
B|---------------------------------------------------------|
G|-12-14-12--12-----------------12-------------------------|
D|---------14--14-13-12-13-14-12--14-12--------------------|
A|-------------------------------------14-13-12--12--------|
E|---------------------------------------------15--15~-12\-|


Guitar 2
e|----------------------------------------------------------|
B|-15--------------15--------------15-----------------------|
G|-14b16-{14}-{14}-14b16-{14}-{14}-14b16-{14}-{14}-12^------|
D|------------------------------------------------------14~-|
A|----------------------------------------------------------|
E|----------------------------------------------------------|

e|-----------------------------------------|
B|-----------------------------------------|
G|-----------------------------------------|
D|-12h14p12----12--------------------------|
A|----------14----14-13-12----12^----------|
E|-------------------------15-----15~--12\-|

e|-------------------------------------------------|
B|-17-15-12-12-17-15-12-12-17-15-12-12-17-15-12-12-|
G|-------------------------------------------------|
D|-------------------------------------------------|x4
A|-------------------------------------------------|
E|-------------------------------------------------|

e|-------------------------------------------|
B|-15p12--12-15p12-15p12--12-15p12-15p12--12-|
G|------14--------------14--------------14---|
D|-------------------------------------------|
A|-------------------------------------------|
E|-------------------------------------------|

e|-------------------------------------------------------------|
B|-15p12--12-17p12--12-15p12--12-17p12--12-15p12--12-17p12--12-|
G|------14--------14--------14--------14--------14--------14---|
D|-------------------------------------------------------------|
A|-------------------------------------------------------------|
E|-------------------------------------------------------------|

e|---------------------------------------------|
B|-15p12--12-----------------------------------|
G|------14---14p12-14p12-14b16-{14tm}--(16)r14-|
D|---------------------------------------------|
A|---------------------------------------------|
E|---------------------------------------------|

e|-------------------------------------------------------|
B|----13b15-{13}-------{13}----{13}---------[13]15r13-12-|
G|-12-----------[12]14-----{14}----{14}-...--------------|
D|-------------------------------------------------------|
A|-------------------------------------------------------|
E|-------------------------------------------------------|

e|---------------------------------------------------------|
B|-15p12---------------------------------------------------|
G|-------14-12-------14-12---------------------------------|
D|-------------14-12-------14-12---------------------------|
A|-------------------------------14-13-12--12h13p12--------|
E|---------------------------------------15---------15-12\-|

End Solo


Play Riff 1
Play Riff 2
Play Riff 1   
Ending:
Guitar 1
e|---------------------------------|
B|---------------------------------|
G|---------------------------------|
D|-9-9-9-9-9-9-9-9-9-9-9-9-9-9-9-9-|
A|-7-7-7-7-7-7-7-7-7-7-7-7-7-7-7-7-|
E|---------------------------------|
   * * * * * * * * * * * *
e|---------------------------|
B|---------------------------|
G|-----------------7---------|
D|-7-7-7-7-7-7-7-7-5-7----9--|
A|-5-5-5-5-5-5-5-5---5----7--|
E|---------------------------|
            
Guitar 2
e|---------------------------------|
B|---------------------------------|
G|---------------------------------|
D|-9-9-9-9-9-9-9-9-9-9-9-9-9-9-9-9-|
A|-7-7-7-7-7-7-7-7-7-7-7-7-7-7-7-7-|
E|---------------------------------|
   * * * * * * * * * * * *
e|---------------------------|
B|---------------------------|
G|-----------------7---------|
D|-7-7-7-7-7-7-7-7-5-7----9--|
A|-5-5-5-5-5-5-5-5---5----7--|
E|-5-5-5-5-5-5-5-5---5-------|
Calificar esta versión:
Aviso: Este fichero es trabajo propio de su transcriptor y representa su interpretación personal de la canción. El material contenido en esta página es para exclusivo uso privado, por lo que se prohibe su reproducción o retransmisión, así como su uso para fines comerciales.
Más versiones de Paranoid, Megadeth
Paranoid
tablatura
Paranoid (ver 2)
tablatura
Descubre más canciones de Megadeth