Hangar 18, Megadeth (tablatura)

Autor: alescito2492 | 20060 visualizaciones

Tab by David Olson and Paul Z.  
|-1-1-1-1-1-1-1-1-|-1-1-1-1-1-1-1-1-|-1-1-1-1-1-1-1-1-|-3-3-3-3-3-3-3-3-|
|-3-3-3-3-3-3-3-3-|-3-3-3-3-3-3-3-3-|-3-3-3-3-3-3-3-3-|-4-4-4-4-4-4-4-4-|
|-2-2-2-2-2-2-2-2-|-3-3-3-3-3-3-3-3-|-4-4-4-4-4-4-4-4-|-5-5-5-5-5-5-5-5-|
|-----------------|-----------------|-----------------|-----------------|
|-----------------|-----------------|-----------------|-----------------|
|-----------------|-----------------|-----------------|-----------------|
|-5-5-5-5-5-5-5-5-|-6-6-6-6-6-6-6-6-|-7-7-7-7-7-7-7-7-|-8-8-8-8-8-8-8-8-|
|-6-6-6-6-6-6-6-6-|-6-6-6-6-6-6-6-6-|-6-6-6-6-6-6-6-6-|-8-8-8-8-8-8-8-8-|
|-7-7-7-7-7-7-7-7-|-7-7-7-7-7-7-7-7-|-7-7-7-7-7-7-7-7-|-9-9-9-9-9-9-9-9-|
|-----------------|-----------------|-----------------|-----------------|
|-----------------|-----------------|-----------------|-----------------|
|-----------------|-----------------|-----------------|-----------------|
then he just picks the chords:
repeat 
|-----1-5---------|-----1-6---------|-----1-7---------|-----3-8---------|
|---3-----6-------|---3-----6-------|---3-----6-------|---4-----8-------|
|-2---------7-----|-3---------7-----|-4---------7-----|-5---------9-----|
|-------------0---|-------------0---|-------------0---|-------------0---|
|-----------------|-----------------|-----------------|-----------------|
|-----------------|-----------------|-----------------|-----------------|
                        Riff A(4x or 5)
|- ----------- ---- ---|-------------------|-------------------|
|- ----------- ---- ---|-------------------|-------------------|
|10-8-7-8-7--- -7-- ---|----2-------/7-----|----3-------/7-----|
|- ----------10---10-8-|0-0-----0-0--------|0-0-----0-0--------|
|- ----------- ---- ---|-------------------|-------------------|
|- ----------- ---- ---|-------------------|-------------------|
                         end riff A  Riff A2
|-----------------|-----------------|-----------------|-----------------|
|-----------------|-----------------|-----------------|-----------------|
|-----4-------/7--|----5-------/7---|----7------2----|----7------3----|
|-0-0-----0-0-----|0-0-----0-0------|0-0-----0-0------|0-0-----0-0------|
|-----------------|-----------------|-----------------|-----------------|
|-----------------|-----------------|-----------------|-----------------|
                         end riff A2 Riff B
|-----------------|-----------------|----------------|----------------|
|-----------------|-----------------|----------------|----------------|
|----7-------4---|----7---7-5------|----------------|----------------|
|0-0-----0-0------|0-0--------------|----7-----7-----|----8-----8---8-|
|-----------------|-----------------|--5-----5-----5-|--5-----5-------|
|-----------------|-----------------|5-----5-----5---|6-----6-----6---|
                      end1 Riff B      end2 Riff B        end 3 Riff B
|----------------|----------------|----- ------ -----|----- ------ -----|
|----------------|----------------|----- ------ -----|----- ------ -----|
|----------------|----------------|----- ------ -----|----- ------ -----|
|----9-----9---9-|----8-----8---8-|----10-----10---10|----11-----11---11|
|--5-----5-------|--5-----5-------|--7-- ---7-- -----|--8-- ---8-- -----|
|7-----7-----7---|6-----6-----6---|8---- -8---- -8---|9---- -9---- -9---|
generally play ending1 then ending 2
on second solo play ending 2 then ending 3 to finish
I'll type in the rest of the ryhthyms if there is a positive respons
Peace, love, and soul,
Paul Zimmerman

Calificar esta versión:
Aviso: Este fichero es trabajo propio de su transcriptor y representa su interpretación personal de la canción. El material contenido en esta página es para exclusivo uso privado, por lo que se prohibe su reproducción o retransmisión, así como su uso para fines comerciales.
Más versiones de Hangar 18, Megadeth
Hangar 18
tablatura
Hangar 18 (ver 2)
tablatura
Hangar 18 (ver 3)
tablatura
Hangar 18 (ver 4)
tablatura
Hangar 18 (ver 5)
tablatura
Hangar 18
bajo
Hangar 18
bateria
Descubre más canciones de Megadeth