La Reina De Marte, Massacre (tablatura)

Autor: xxblackxpinkxx | 25836 visualizaciones



"La Reina de Marte", Massacre.
___________________________________
*Album: 'El Mamut'
*Transcripto por: sebas a., buenos aires, argentina 2008. 
Email msn por cualquier duda: playing.the.angel_@hotmail.com & xxcontagiousxx@live.com
*Dificultad: Intermedio
___________________________________
Guitarras:

Gtr1 = Distorción leve-media.
Gtr2 = Sin distorsión, Reverb 75%
Gtr3 = Mucha Distorsión.
Gtr4 = Wah-Wah (creo) - Distorción

Todas afinadas en EADGBe/Standard

*NOTA: El rasgueo no lo incluí, no es necesario y se sobre entiende. Esta tablatura esta pensada para ser tocada por 2 guitarras al mismo tiempo.
___________________________________

INTRO:
 Gtr1
e|------------------------------------------------------------------------
B|------------------------------------------------------------------------
G|------------------------------------------------------------------------
D|3---…--------------------------------------------------------------------
A|3-----------------------------------------------------------------------
E|1-----------------------------------------------------------------------
 |Gtr2                                                                   |
e|1----1--------------------------------------------------------------
B|1----1--------------------------------------------------------------
G|1----1----------------------------------------------------------
D|3----3--------------------------------------------------------------
A|3----3--------------------------------------------------------------
E|1----1--------------------------------------------------------------


 Gtr1
e|-----------------------------------------------------------------------
B|-----------------------------------------------------------------------
G|-----------------------------------------------------------------------
D|-----------------------------------------------------------------------
A|-----------------------------------------------------------------------
E|-----------------------------------------------------------------------
 |Gtr2                                                                   |
e|1-----4--------6------------------------------------------------------
B|1-----4--------8-------------------------------------------------------
G|1-----5--------8-------------------------------------------------------
D|3-----6--------8-------------------------------------------------------
A|3-----6--------6-------------------------------------------------------
E|1-----4--------6-------------------------------------------------------
‘Todos saben que pronto…

 Gtr1
e|-----------------------------------------1-----------------------------
B|------------------------4v---------------2-----------------------------
G|----------------------3------------------1-----------------------------
D|-----------------------------------------------------------------------
A|-----------------------------------------------------------------------
E|-----------------------------------------------------------------------
 |Gtr2                                                                   |
e|1--------4----------6--------------------------------------------------
B|1--------4----------8--------------------------------------------------
G|1--------5----------8--------------------/6----------------------------
D|3--------6----------8--------------------/6----------------------------
A|3--------6----------6--------------------/4----------------------------
E|1--------4----------6--------------------------------------------------
‘Las 2 mitades del Sol…


Gtr1
e|-----------------------------------------------------------------------
B|--------------------4/3------------------------------------------------
G|------------------------3--3-------------------------------------------
D|3-------/6----------------3--------------------------------------------
A|-----------------------------------------------------------------------
E|1-------/4-------------------------------------------------------------
 |Gtr2                                                                   |
e|1--------4----------6--------------------------------------------------
B|1--------4----------6--------------------------------------------------
G|1--------5----------7--------------------------------------------------
D|3--------6----------8--------------------------------------------------
A|3--------6----------8--------------------------------------------------
E|1--------4----------6--------------------------------------------------
‘O simplemente, en Diciembre…


Gtr1
e|-----------------------------------------------------------------------
B|-----------------------------------------------------------------------
G|6-------------------6--------------------------------------------------
D|6-------------------6-----------3------------/10----------------------
A|4----------3--------4-----------3------------/10-----------------------
E|-----------1--------------------1------------/8------------------------
 |Gtr2                                                                   |
e|4----------1--------4-----------1-------------3------------------------
B|6----------1--------6-----------1-------------5------------------------
G|6----------1--------6-----------1-------------3------------------------
D|6----------3--------6-----------3-------------5------------------------
A|4----------3--------4-----------3-------------3------------------------
E|4----------1--------4-----------1-------------3------------------------
   ‘Se deberán, se-parar, por causas religio-osas…


Gtr1

e|-----------------------------------3-4-3----1----------------------------
B|-----------------------------------------------------------------------
G|[Rápidamente]----------------------------------------------------------
D|(3/10/3)-------------------------------------------------------------
A|(x/x-/x)----------5/6----------8---------------------------------------
E|(1/8-/1)----------3/4----------6-------------------------------------
 |Gtr3                                                                  |
e|-----------------------------------------------------------------------
B|-----------------------------------------------------------------------
G|--------------------------------8--------------------------------------
D|0-x-0-/3-------------/6---------8--------------------------------------
A|0-x-0-/3-------------/6---------6--------------------------------------
E|0-x-0-/1-------------/4------------------------------------------------
          ‘Yo soy la Reina de Marte.


Gtr1
e|-----------------------------------3-4-3-----4----------------------------
B|-----------------------------------------------------------------------
G|-----------------------------------------------------------------------
D|-----------------------------------------------------------------------
A|/3----5-/--6----------------8----------------------------------------------
E|/1----3-/--4----------------6----------------------------------------------
 |Gtr3                                                                  |
e|-----------------------------------------------------------------------
B|-----------------------------------------------------------------------
G|-----------------------------------------------------------------------
D|3---------------------------8------------------------------------------
A|3-----------6---------------6------------------------------------------
E|1-----------4---------------6------------------------------------------
      En-sam-blada en Hong-Kong;

Gtr1
e|---------------------------6-------------------------------------------
B|-----------------------------6-----------------------------------------
G|-------------------------------7…------------------------------------
D|-----------------------------------------------------------------------
A|x-3--------6----------------------------------------------------------
E|x-1--------4----------------------------------------------------------
 |Gtr3                                                                   |
e|-----------------------------------------------------------------------
B|-----------------------------------------------------------------------
G|-----------------------------------------------------------------------
D|3-----------6-----------------------------------------------------------
A|3-----------6--------------8--------------------------------------------
E|1-----------4--------------6--------------------------------------------
    ‘Sovieticas, son mis partes…’ (Uuuh!)


Gtr1
e|-----------------------------------------------------------------------
B|-----------------------------------------------------------------------
G|-----------------------------------------------------------------------
D|6-------------------------------------8----------------6--------------
A|4----------3-----------6--------------6----------------4---------------
E|-----------1-----------4-----------------------------------------------
 |Gtr3                                                                 |
e|-----------------------------------------------------------------------
B|-----------------------------------------------------------------------
G|6----------------------------------------------------------------------
D|6----------3-----------6--------------8----------------6---------------
A|4----------x-----------6--------------6----------------4---------------
E|-----------1-----------4--------------6----------------4---------------
    ‘ Y solamente, de hongos, es la dieta que hago yo…’


Gtr1
e|------------------------------3----------------------------------------
B|------------------------------5----------------------------------------
G|------------------------------3----------------------------------------
D|-----------6-----------------------------------------------------------
A|-----------6-----------------------------------------------------------
E|-----------4-----------------------------------------------------------
 |Gtr3                                                               |
e|------------------------------3----------------------------------------
B|------------------------------5----------------------------------------
G|------------------------------3----------------------------------------
D|------------6-----------------5----------------------------------------
A|------------6-----------------3----------------------------------------
E|------------4-----------------3----------------------------------------
  ‘Y se me agrandan,    los o-ojos…!’


Gtr4
e|-----------------------------------------------------------------------
B|---------9-10b13------------------------------------------------------
G|/10v-/12--------------------------------------------------------------
D|---------------------------%-------------------------------------------
A|-----------------------------------------------------------------------
E|-----------------------------------------------------------------------
 |Gtr3                                                                |
e|1------4------------1--------------------------------------------------
B|1------6------------3--------------------------------------------------
G|1------6------------3-------------------------------------------------
D|3------6------------3------%------------------------------------------
A|3------4------------1--------------------------------------------------
E|1------4------------1--------------------------------------------------
‘El universo es su madre. Y nuestro sistema solar’



Gtr4
e|-----------------------------------------------------------------------
B|-----------------------------------------------------------------------
G|-----------------------------------------------------------------------
D|%----------------------------------------------------------------------
A|-----------------------------------------------------------------------
E|-----------------------------------------------------------------------
 |Gtr3                                                                  |
e|-----------------------------------------------------------------------
B|-----------------------------------------------------------------------
G|-----------------------------------------------------------------------
D|%----------------------------------------------------------------------
A|-----------------------------------------------------------------------
E|-----------------------------------------------------------------------
‘Es su collar de diama-antes, reverenciemos la ya…’

Después hace un interludio de:
C A# G# G


Solo:

Parte 1 (No muy definida):
Gtr4
e|----------------------------------------------3-3----------------------
B|6-6-6-6-6-6-6-6-6-4-4-4-4-3-3-3-3-----------------4-6-6-6-6-6-6-4-4-3-3
G|----------------------------------3-3----------------------------------
D|--------------------------------------3--------------------------------
A|-----------------------------------------------------------------------
E|-----------------------------------------------------------------------

e|-----------------------------------------------------------------------
B|3-3-3-3-3-4-3-4-3-3----------------------------------------------------
G|-----------------------------------------------------------------------
D|-----------------------------------------------------------------------
A|-----------------------------------------------------------------------
E|-----------------------------------------------------------------------

Parte 2 (Esta parte es más clara, creo que está 95% bien)
Gtr3
e|-1-----1-4-—--1h4p1---------8/4-4----11/8-8-/4v------------------------
B|---2----------------2-----/6--------6----------------------------------
G|-----1-----------------------------------------------------------------
D|-----------------------------------------------------------------------
A|-----------------------------------------------------------------------
E|-----------------------------------------------------------------------

Parte 3 (Subida):
Gtr3
e|-----------------------------------------------------------------------
B|------------------9----9-11—11b13==--9-11b13-9-11b13r11-----------------G|10-9-10-12--10-12---12----------------------------------10v------------
D|-----------------------------------------------------------------------
A|-----------------------------------------------------------------------
E|-----------------------------------------------------------------------

Acordes de base con Gtr 1:
C#    A# A#   F

C#    A#   G# D# C#  A#

F#    C#   Fm   G#   C

[Fin del solo]


Gtr1
e|-----------------------------------------------------------------------
B|-----------------------------------------------------------------------
G|-----------------------------------------------------------------------
D|6-------------------------------------8----------------6--------------
A|4----------3-----------6--------------6----------------4---------------
E|-----------1-----------4-----------------------------------------------
 |Gtr3                                                                 |
e|-----------------------------------------------------------------------
B|-----------------------------------------------------------------------
G|6----------------------------------------------------------------------
D|6----------3-----------6--------------8----------------6---------------
A|4----------x-----------6--------------6----------------4---------------
E|-----------1-----------4--------------6----------------4---------------
    ‘ Y solamente, de hongos, es la dieta que hago yo…’


Gtr1
e|-----------------------------------------------------------------------
B|-----------------------------------------------------------------------
G|-----------------------------------------------------------------------
D|-----------6------------------5-------------[se baja el volumen]-…--
A|-----------6------------------3----------------------------------------
E|-----------4------------------3----------------------------------------
 |Gtr3                                                               |
e|-----------------------------------------------------------------------
B|-----------------------------------------------------------------------
G|------------------------------3----------------------------------------
D|------------6-----------------5----------------------------------…---
A|------------6-----------------3----------------------------------------
E|------------4----------------------------------------------------------
  ‘Y se me agrandan,    los o-ojos…!’



Gtr4
e|-----------------------------------------------------------------------
B|--6v—8v---------------------------------------------------------------
G|---------5--/8v-…----------------------------------------------------
D|-----------------------------------------------------------------------
A|----------------------------------6---8---6-----3----------------------
E|----------------------------------4--/6--/4----/1----------------------
 |Gtr3                                                                 |
e|1----------------------------------------------------------------------
B|1----------------------------------------------------------------------
G|1----------------------------------------------------------------------
D|3-----…---------------------------6---8---6-----3----------------------
A|3---------------------------------6---8---6-----3----------------------
E|1---------------------------------4---6---4-----1----------------------


Gtr1
e|-----------------------------------------------------------------------
B|---------9(11b13)-----------------------------------------------------
G|/10v-/12--------------------------------------------------------------
D|----------------------------------------------------------------------
A|-----------------------------------------------------------------------
E|-----------------------------------------------------------------------
 |Gtr2                                                                   |
e|1------------4----------1-----------------------------------------------
B|1------------6----------3-----------------------------------------------
G|1------------6----------3-----------------------------------------------
D|3------------6----------3-----------------------------------------------
A|3------------4----------1-----------------------------------------------
E|1------------4----------1-----------------------------------------------
     ‘Ya todos saben que pronto…

Gtr1
e|-----------------------------------------------------------------------
B|-----------------------------------------------------------------------
G|-----------------------------------------------------------------------
D|---%-------------------------------------------------------------------
A|-----------------------------------------------------------------------
E|-----------------------------------------------------------------------
 |Gtr2                                                                  |
e|-----------------------------------------------------------------------
B|-----------------------------------------------------------------------
G|--%--------------------------------------------------------------------
D|-----------------------------------------------------------------------
A|-----------------------------------------------------------------------
E|-----------------------------------------------------------------------
‘Las dos mitades del sol, o simplemente en Diciembre…

e|-----------------------------------------------------------------------
B|-----------------------------------------------------------------------
G|-----------------------------------------------------------------------
D|-----------------------------------------------------------------------
A|-----------------------------------------------------------------------
E|-----------------------------------------------------------------------

Gtr4
e|-----------------------------------------------------------------------
B|-----------------------------------------------------------------------
G|-----------------------------------------------------------------------
D|%----------------------------------------------------------------------
A|-----------------------------------------------------------------------
E|-----------------------------------------------------------------------
 |Gtr3                                                                  |
e|-----------------------------------------------------------------------
B|-----------------------------------------------------------------------
G|-----------------------------------------------------------------------
D|%----------------------------------------------------------------------
A|-----------------------------------------------------------------------
E|-----------------------------------------------------------------------
INTERLUDIO: C# C A# G# G G# D#


A#                            C#      Fm
De hongo es la dieta que hago yo
A#                      C#         Fm
y se me agrandas los ojos
A#                           C#       Fm
de hongo es la dieta que hago yo
A#                         G# A# G#
de hongo es la dieta que hago.

___________________________________________________________
Referencias:

%: Repite lo mismo.
b: bending, estirar.
/: slide
V: vibrato
=: Durante el bending, 





Comentarios del colaborador: Última estrofa de la canción tomada de LaCuerda.net

Calificar esta versión:
Aviso: Este fichero es trabajo propio de su transcriptor y representa su interpretación personal de la canción. El material contenido en esta página es para exclusivo uso privado, por lo que se prohibe su reproducción o retransmisión, así como su uso para fines comerciales.
Más versiones de La Reina De Marte, Massacre
La Reina De Marte
acordes
La Reina De Marte
tablatura
Descubre más canciones de Massacre