Classical Gas, Mason Williams (tablatura)

Autor: deathshadow | 43152 visualizaciones



INTRO:
 3/4  ,   .   .     ,   .   .     ,   .   .     ,   .   .
||----------------|-------------|-------------|-------------|
||-T--1-------1---|---0---------|---0---------|-------------|
||-A------2-------|--0----------|--0--2---0---|---2---------|
||-B--------------|-------------|-------------|--2----------|
||----0-----------|-------------|-------------|-0-----------|
||----------------|-3---------2-|-0-----------|-------------|


  ,    .   .     ,   .   .     ,    .    .      ,   .   .
|--------------|-------------|----------------|-------------|
|---0h1----0h1-|---0---------|---0----------0-|-------------|
|--2---2-------|--0----------|--0---2--0-0h2--|---2---------|
|--------------|-------------|----------------|--2----------|
|-0------------|-------------|----------------|-0-----------|
|--------------|-3---------2-|-0--------------|-------------|


E|----------------------|-0---------------|-------------|
B|-----0-1----1-----3---|-------3-1---3---|---1--0------|
G|---0------2-----0---0-|----0------------|-------------|  Pause...
D|----------------------|-----------------|-2-----------|
A|--------0-----2-------|-3-------0-------|-------------|
E|-3--------------------|-----------------|-------------|

E||--------------------|----------------|----------------|-----------------||
B||--0h1p0---0---1---0-|----------------|0---------0-----|-----------------||
G||*-------2-----2---0-|----0-----0-----|--2-0-2-------2-|----2-----2-----*||
D||*-------------------|--0-----0-------|----------------|--2-----2-----2-*||
A||--0-------------0---|----------------|----------------|0-----0-----0----||
E||--------------------|3-----2-----0---|0-------0---0---|-----------------|| 





E|-----------------|----------------|-0---------------|-------|-----------------|

B|-------0-----0-1-|-----1-----3----|-------3-1---3---|---1-0-|-----------------|

G|-----2-----0-----|---2-----0---0--|-----------------|-------|-2-0--2-2--------|

D|---2-------------|----------------|---------------2-|-------|-----------------|

A|-0---------------|-0-----2--------|-3-------0-------|-------|-----------------|

E|---------3-------|----------------|-----------------|-------|-1----0-0--------|



   Am      G         Am    G        C     F     D7    G       E

E|------------------|---------------|-0-----1-----2-----3-----|------------------|

B|--------0-----0-1-|-----1-----3---|---1-----0-----1-----3---|-9---10---12------|

G|-0----2-----0-----|---2-----0---0-|-----0-----0-----2-----0-|---9----9---------|

D|----2-------------|---------------|-------------0-----------|------------------|

A|--0---------------|-0-----2-------|-3-----0-----------------|------------------|

E|----------3-------|---------------|-------------------3-----|-0----------------|



                                  6/4                       3/4



  4/4

   Am                D                 Am                D

E|-8-7-5-----5-------|---5-----5---------|-8-7-5-----5-------|-------5------------|

B|-5-----8-------7---|-----7-----7-------|-------8-------7---|---8-----8------5---|

G|-------------------|-------------------|-------------------|--------------5-----|

D|-------------------|-0-----0-----------|-------------------|-0---0-----0--------|

A|-0-----------------|-------------------|-0-----------------|--------------------|

E|---------0---0-----|-------------------|---------0---0-----|--------------------|



   Am                D             G     C   F   Bb  A7sus4             x4

E|-8-7-5-----5--------|--8-5-----|----------------------------------|--------|

B|-5------8-------7---|------8---|-----8--------5----------6-----3--|-----3--|

G|--------------------|----------|-----7--------5----------5-----3--|-----0--|

D|--------------------|----------|----------------------------------|--------|

A|-0------------------|----------|-------------------0-0------------|--0-----|

E|----------0---0-----|----------|-5h0-----0h3----------------0h1---|--------|                          

                              

   Dm9

E|---------0-----------|

B|-------3---3-------3-|

G|-----2-------2---2---|  Pause...

D|---3-----------3-----|

A|-0-------------------|

E|---------------------|





 











PART 2:

                  Am                               Am                              Am

E|----------------------------------|---------------------------------|---------------------------------|
B|-1----1---------3-----1-----0-----|-0h1-1---------0-----------------|-0h1-1---------0-----1-----3-----|
G|----2---2-----2-----2-----2-----2-|-------2-----2-------2-----0-----|-------2-----2-----2-----2-----2-|
D|------------2---------------------|-----------2-------2-----2-----2-|-----------2---------------------|
A|-0--------0-------0-----0-----0---|-0-------0-------0-----0-----0---|-0-------0-------0-----0-----0---|
E|----------------------------------|---------------------------------|---------------------------------|

                                                C                 G/B
E|----------------------------|---------|-0---0-----------|---------1-0-----|
B|-5---5--3---3--1---1--0---0-|---0-1-0-|---3---1-----1---|-----3-------3---|
G|---5------4------2------0---|-2-------|-----------2---0-|---0---0-------0-|
D|----------------------------|---------|-----------------|-----------------|
A|-0------0------0------0-----|---------|-3-------3-------|-2---------------|
E|----------------------------|---------|-----------------|-----------------|

         Am                 G                 C                G/B               Am
E|-0---0-----------|---------1-0-----|-0---0-----------|---------1-0-----|-0---0-----------|---------------|B|---3---1-----1---|-----3-------3---|---3---1-----1---|-----3-------3---|---3---1-----1---|---------------|
G|-----------2---0-|---0---0-------0-|-----------2---0-|---0---0-------0-|-----------2---0-|-----0-----0---|
D|-----------------|-----------------|-----------------|-----------------|-----------------|---0-----0-----|
A|-0-------0-------|-----------------|-3-------3-------|-2---------------|-0-------0-------|---------------|
E|-----------------|-3---------------|-----------------|-----------------|-----------------|-3-----2-----0-|

E|----------------|-------------------0---1---2---3---|-------------|
B|-0---------0----|------0----2---3-----0---0---1---0-|-9---10---12-|
G|---2-0-2--------|-2------0----2---0-----------------|---9----9----|
D|----------------|---2-------------------------------|-------------|
A|-0--------------|-0---------0---2---3---0---0-------|-------------|
E|---------0---0--|-----3-------------------------3---|-0-----------|


E|-8-7-5-----5-------|---5-----5---------|-8-7-5-----5-------|-------5------------|

B|-5-----8-------7---|-----7-----7-------|-------8-------7---|---8-----8------5---|

G|-------------------|-------------------|-------------------|--------------5-----|

D|-------------------|-0-----0-----------|-------------------|-0---0-----0--------|

A|-0-----------------|-------------------|-0-----------------|--------------------|

E|---------0---0-----|-------------------|---------0---0-----|--------------------|



   Am                D             G     C   F   Bb  A7sus4             x4

E|-8-7-5-----5--------|--8-5-----|----------------------------------|--------|

B|-5------8-------7---|------8---|-----8--------5----------6-----3--|-----3--|

G|--------------------|----------|-----7--------5----------5-----3--|-----0--|

D|--------------------|----------|----------------------------------|--------|

A|-0------------------|----------|-------------------0-0------------|--0-----|

E|----------0---0-----|----------|-5h0-----0h3----------------0h1---|--------|                          

                              

   Dm9

E|-----0-----------------|

B|-------3---------------|

G|---------2-------------|  

D|---3-------3-----------|      Pause.........

A|-0-----------0---------|

E|---------------0-------|



Part 3:

E||--------------------|----------------|----------------|-----------------||
B||--0h1p0---0---1---0-|----------------|0---------0-----|-----------------||
G||--------2-----2---0-|----0-----0-----|--2-0-2-------2-|----2-----2-----*||
D||--------------------|--0-----0-------|----------------|--2-----2-----2-*||
A||--0-------------0---|----------------|----------------|0-----0-----0----||
E||--------------------|3-----2-----0---|0-------0---0---|-----------------|| 

E|-----------------|----------------|-0---------------|-------|-----------------|

B|-------0-----0-1-|-----1-----3----|-------3-1---3---|---1-0-|-----------------|

G|-----2-----0-----|---2-----0---0--|-----------------|-------|-2-0--2-2--------|

D|---2-------------|----------------|---------------2-|-------|-----------------|

A|-0---------------|-0-----2--------|-3-------0-------|-------|-----------------|

E|---------3-------|----------------|-----------------|-------|-1----0-0--------|


E|----------------------0---1---2---3-------|----------------|
B|---------0----2---3-----0---0---1---0-----|-9---10---12-10-|
G|-0--2------0----2---0---------------------|---9----9-------|
D|------2-----------------------------------|----------------|
A|----0---------0---2---3---0---0-----------|----------------|
E|--------3-------------------------3-------|-0--------------|
               
                               x4                                                    (rápido)
E|---------------------------|-----|---------0-----------|---------0-----------|----------------|
B|-----8-------5-----6-----3-|---3-|-------3---3-------3-|-------3---3-------3-|----------2h0-2-|G|-----7-------5-----5-----3-|---0-|-----2-------2---2---|-----2-------2---2---|--------2-------|
D|---------------------------|-----|---3-----------3-----|---4-----------3-----|------2---------|
A|---------------0-0---------|-0---|-0-------------------|-0-------------------|-0--------------|
E|-0-0-----0h3---------0h1---|-----|---------------------|---------------------|----------------|





Calificar esta versión:
Aviso: Este fichero es trabajo propio de su transcriptor y representa su interpretación personal de la canción. El material contenido en esta página es para exclusivo uso privado, por lo que se prohibe su reproducción o retransmisión, así como su uso para fines comerciales.