Para Ti, Masappan (bajo)

Autor: rafa_rockz | 26771 visualizaciones



qe onda lokoz!!!!
aki les dejo el bajo de la rola para ti de masappan bna banda
sale disfrutenla
ahi se acomodan para hacer los cambios xq la verdad me da flojera
pero es facil



INTRO:
g|-----------------------------------
d|-----------------------------------
a|---2*------------------------------ x2
e|--------4*-----0*---------2*-------

TERMINA EN:
g|-----------------------------------
d|-----------------------------------
a|--2--------------------------------
e|-----------------------------------


VERSO:
g|-----------------------------------
d|-----------------------------------
a|---2*------------------------------ x2
e|---------4*-----o*-------2*--------

LUEGO "ERAS TAN FRESA Y NO PODIAS ESTAR..."


g|-------------------------------------
d|-------------------------------------
a|-------------------------------------
e|--0000---2222---0000---2222---4-4-2--

CORO:
g|--------------------------------------
d|--------------------------------------
a|---2*---------------------------------x2
e|--------2*--------4*------O*----------


AHORA:

g|--------------------------------------
d|--------------------------------------
a|---2222-------------------------------x2
e|---------4444---0000---2222-----------

VERSO:
g|--------------------------------------
d|--------------------------------------
a|---2*---------------------------------x2
e|--------4*-------0*-------2*----------



"ERAS TAN FRESA Y NO PODIAS ESTAR..."

g|---------------------------------------
d|---------------------------------------
a|---------------------------------------
e|---0000---2222---0000---2222---4-4-2---


CORO:
g|----------------------------------------
d|----------------------------------------
a|---2*-----------------------------------x2
e|--------2*-----4*------0*---------------


PUENTE

g|-----------------------------------------
d|-----------------------------------------
a|---2222----------------------------------x4
e|---------4444---0000---2222--------------


CORO:
g|------------------------------------------
d|------------------------------------------
a|---2*------------------------------------- x4
e|----------2*------4*------0*--------------

FIN
g|------------------------------
d|------------------------------
a|--2---------------------------
e|------------------------------





Comentarios del colaborador: BUENO AHI ESTA LA TAB PARA BAJO DISFRUTENLA!

Calificar esta versión:
Aviso: Este fichero es trabajo propio de su transcriptor y representa su interpretación personal de la canción. El material contenido en esta página es para exclusivo uso privado, por lo que se prohibe su reproducción o retransmisión, así como su uso para fines comerciales.
Más versiones de Para Ti, Masappan
Para Ti
acordes
Para Ti
bajo
Descubre más canciones de Masappan