El Diario De María, Martin Valverde (bajo)

Autor: Anónimo | 33383 visualizaciones

A|0-----0-0---0--0-0-0--0--0--0--0-5--5-5-|
 Te miro a los ojos y entre tanto llanto

A|-------------------------------3-3-|
E|---------3---3---3--3------3--3----|
 Parece mentira que te hallan clavado

A|--3--3----------------------7--7--7---|
E|-------1--1-3-----3--3---3-3----------|
 Que seas el pequeño al que he acunado 

A|---------------5---5--------------------------3-3--|
E|5---5--5----5--------3----3--3---3---3-------------|
 Y que se dormía  tan pronto en mis brazos,

A|3----3--3--3--3-------------------7-7--|
E|----------------1-1-3-3--3--3-3--------|          
 El que se reía al mirar el cielo 

A|------------------5---5---------3-3-|
E|-------5---5--5---------3--3-3------|      
 y cuando rezaba  se ponía serio.


A|--------------------------------5-5-|
E|0---0---0--0-0--0--5-5-5--5--5------|
 Sobre ese madero, veo al pequeño 

A|5--5--5--5--5------------------------------5-5-|
E|----------------3----3---3---3--3--3----3------|	
 Que entre los doctores hablaba en el templo

A|5--5--5-5--5---5--5-----------------------7-7-|
E|--------------------1--1--1--3---3--3-3-------|	    
 Que cuando pregunté, respondió con calma

A|------------------5---------------------3-3--|
E|5-5--5---5--5--5------3--3---3---3--3--------|
 Que de los asuntos de Dios se encargaba,

A|5--5--5--5--5--5-----------3-3---3--3---7-7-|
E|-------------------1--1--1------------------|    
 Ese mismo niño, el que está en la cruz

A|---------------------------5-5---------3-3-|
E|---5---5--5--5--5-------5-------3-3--3-----| 
 El Dios de los hombres se llama Jesús


A|3--3--3--3---3---------------------5-5--|
E|----------------5--5--5---5--5--5-------|	    
 Ese mismo hombre, ya no era un niño

A|5--5---5---5---5--5-----------------3-3-|
E|--------------------3---3---3--3--3-----|         
 Y en aquella boda le pedí más vino

A|3-3---3--3---3-------------------------7-7-|
E|----------------1---1---1--1--1---3-3------|	      	
 Que dio de comer a un millar de gentes

A|---------------5--5---5-5---5--5---------3-3-|
E|5--5---5--5--5--------------------3--3--3----|
 Y a pobres y enfermos los miró de frente

A|3--3--3-3-------------------------------7-7-|
E|----------1--1--1---3--3--3--3--3--3--3----|	
 Rió con aquellos  a  quienes más quiso

A|---------------------5--5--5--5---5--5-5------3-3|
E|------5--5---5---5------------------------3-3----|     	
 Y lloro en silencio cuando murió su amigo


A|-----------------------------5-5--5-5--|
E|-----------5---5---5---5---5-----------|
 Ya cae la tarde, se nublan los cielos

A|-----------------------3--3--3--3-|
E|---------3--3--3--3--3------------|
 Pronto volverás a tu padre eterno.

A|-----------------------------------7-7-|
E|---------1--|--|----|--|-3--3--3--3----|
 Duérmete pequeño, duérmete mi niño 

A|---------------5-5----------------3--3-|
E|5---5--5--5---5------3----3--3--3------|
 Que yo te he entregado todo mi cariño

A|3--3--3--3--3-------------------5-5-----|
E|-------------1---1--1--1-3--3--3----5-5-|  
 Como en Nazaret aquella mañana

A|-----------5---5---5-----------------3-3-|
E|----------------------3--3---3--3--3-----|	  
 He aquí tu sierva, he aquí tu esclava.
Calificar esta versión:
Aviso: Este fichero es trabajo propio de su transcriptor y representa su interpretación personal de la canción. El material contenido en esta página es para exclusivo uso privado, por lo que se prohibe su reproducción o retransmisión, así como su uso para fines comerciales.
Más versiones de El Diario De María, Martin Valverde
El Diario De María
acordes
El Diario De María (ver 2)
acordes
El Diario De María
tablatura
El Diario De María
bajo
Descubre más canciones de Martin Valverde